Guitar tablature for Rietfontein se leidam by Gerald Clark (tabbed by G3752)
#----------------------------------PLEASE NOTE---------------------------------#
#This file is the author's own work and represents their interpretation of the #
#song. You may only use this file for private study, scholarship, or research. #
#------------------------------------------------------------------------------##

Vir enige vrae/criticism/verbeteringe email my by gabriel3752@yahoo.com

Intro:
E|-------------------------------------------------------------------|
B|-------8---------------8----------------7---------------7----------|
G|-----9---9-----------9---9------------7---7-----------7---7--------|  
D|---9-------9---9---9-------9---9----7-------7---7---7-------7---7--|
A|-7-----------7---7----------7-----5-----------5---5-----------5----|
e|-------------------------------------------------------------------|

E|--------------------------------------------------|
B|-------5---------------5----------------7---------|
G|-----5---5-----------5---5------------7---7-------|  
D|---5-------5---5---5-------5---5----7-------7---7-| Strum D chord
A|-3-----------3---3----------3-----5-----------5---|
e|--------------------------------------------------|

verse: X2
E|-------------------------------------------------------------------|
B|-------8---------------8----------------7---------------7----------|
G|-----9---9-----------9---9------------7---7-----------7---7--------|  
D|---9-------9---9---9-------9---9----7-------7---7---7-------7---7--|
A|-7-----------7---7----------7-----5-----------5---5-----------5----|
e|-------------------------------------------------------------------|

E|-------------------------------------------------------------------|
B|-------5---------------5----------------7---------------7----------|
G|-----5---5-----------5---5------------7---7-----------7---7--------|  
D|---5-------5---5---5-------5---5----7-------7---7---7-------7---7--|
A|-3-----------3---3----------3-----5-----------5---5-----------5----|
e|-------------------------------------------------------------------|

Chorus: X2

Em-C-G-B7

Verse 2: repeat verse X2

Repeat chorus: X2

Verse 3:

Em-D-C-D

Repeat chorus: X2

Vers 4:repeat verse X2

Solo: Guitar 2 plays chorus:

E|-------------------------------------------------------------------|
B|-----10pb12r10p8-8-8h10-12~--12p10---10h12-10----------------------|
G|-----------------------------------12---------12-----12h14p12----12|  
D|-14~---------------------------------------------14-----------14---|
A|-------------------------------------------------------------------|
e|-------------------------------------------------------------------|


E|------------------------------------------------------------------------------|
B|-12~-------------------------------------------------------------12/15-15--17-|
G|-12~---------------------------------11-12--11-12p11-12h14-12-14--------------|  
D|-----14-12----14~--12-14-------12-14------14----------------------------------|
A|-----------h14-----------12-14------------------------------------------------|
e|------------------------------------------------------------------------------

E|-15-14-12-------------12-------------------------------------------|
B|----------15b17-15-12-12-15-12----12-------------------------------|
G|-------------------------------14----14-12----12h14p12~---14---12~-|  
D|-------------------------------------------14-----------14---14----|
A|-------------------------------------------------------------------|
e|-------------------------------------------------------------------|

E|---------------------------------------------------------------------------|
B|------------------------------------------10-12-10-12-10-12/15-15-15-15b17~|
G|-11/12\11----------------11---11-12-11-12----------------------------------|  
D|----------12/14\12--12-14--14----------------------------------------------|
A|---------------------------------------------------------------------------|
e|---------------------------------------------------------------------------|

Repeat chorus X2

---------------------------
This file passed through:
       Absolute Tabs
   http://www.tabs.co.za
---------------------------