Guitar tablature for Die Illusie van Veiligheid by Fokofpolisiekar
#----------------------------------PLEASE NOTE---------------------------------#
#This file is the author's own work and represents their interpretation of the-#
#song. You may only use this file for private study, scholarship, or research.-#
#------------------------------------------------------------------------------#
                                    06 Jan 2006                               

Fokofpolisiekar - Illusie Van Veilighed
Album : Monoloog In Stereo
Tabbed by : Rohan B�chner
e-mail :thefoamyone@hotmail.com



x - dead note


                                  [main  riff]
=================================================================================

-----------------------------------------------------------
-----------------------------------------------------------
---4--x--------9----x--------------------------------------
---5--5--------10---10-------------------------------------
---3--3--------8----8--------------------------------------
-----------------------------------------------------------
  Luister na hoeveelkeer jy wat moet speel   ($)



|------------------|--------------------------------------
|------------------|---1-1--------------------------------
|--5---7---4---5---|---0-0-----------1-1------------------
|--7---9---5---7---|---2-2-----------2-2------------------
|--0---0---0---0---|---3-3-----------2-2------------------
|------------------|----------12/1---0-0------------------
       $

================================================================================



-----------------------------------------------------------
-----------------------------------------------------------
-----------------------------------------------------------
-----------------------------------------------------------
-----------------------------------------------------------
-5----0-----5-----3-7-8-----3----5-------------------------
(die bass kitaar speel eintlik die deel)



|-------------------|--------------------------------------
|-------------------|--------------------------------------
|--5----------------|--------------------------------------
|--5------5------7--|--7-7---7-----3-3---3/5-5-5-----------
|--3------5------7--|--7-7---7-----3-3---3/5-5-5-----------
|--3------3------5--|--5-5---5-----1-1---1/3-3-3-----------

     $                         $


                                         (let wel: C word as 'n open chord
   C       G      A
op soek na bewyse dat ek lewe            (gespeel, maar die res as Power chords


C     G        A
laat nag vals plesiere


    F                 G
die res lag harder as ek


   A
ek lag nie vir vlou grappe nie


    C              G             A
dis klaar te laat, luister julle nie


    F                G
dit voel asof ek met myself praat


         A             G
en daars geen pad vorentoe nie so


[main  riff]
wat doen ons nou?
ons los ons ruite oop, en ons het nie
diefwering nie
ek het familie wat nie bloed is nie
dit help nie veel vir hoe
ek voel nie
jys lui, jys selfsugtig, en jy luister nie


[solo]
-----------------------------------------------------------
-----------------------------------------------------------
----2-0----------------------------------------------------
--------2h0------------------------------------------------
--0---------3-0h3-5-0--------------------------------------
-----------------------------------------------------------


-----------------------------------------------------------
-5---5---5-3h5--8--5-----5---5---5---5---0-----------------
---5---5---------------5---4---2---0---2-------------------
-----------------------------------------------------------
-----------------------------------------------------------
-----------------------------------------------------------


-----------------------------------------------------------
-----------------------------------------------------------
--2/5-5-5-5-5-5/10-10-10-10-10\9-9-9-9-9-------------------
-----------------------------------------------------------
-----------------------------------------------------------
-----------------------------------------------------------


-----------------------------------------------------------
-----------------------------------------------------------
--------5\4-2-0--------------------------------------------
--0h2-5------------0h2-2-2-0-------------------------------
-----------------------------2-0-2/3-3\2-0-----------------
-------------------------------------------3-5-------------



Ja, dis omtrent dit wat ek kon uitfiggure. Geniet die tab!


---------------------------
This file passed through:
       Absolute Tabs
   http://www.tabs.co.za
---------------------------