Guitar tablature for N1 Roete by Klopjag (tabbed by Boskultuur)
#----------------------------------PLEASE NOTE---------------------------------#
#This file is the author's own work and represents their interpretation of the #
#song. You may only use this file for private study, scholarship, or research. #
#------------------------------------------------------------------------------##

Hierdie is die eerste keer wat ek 'n Liedjie tab, so ek gaan vir volledigheids onthalwe
my weergawe tab asook die lirieke en akoorde onderaan plaas.  Jammer as dit bietjie lank is.

Enige opbouende kritiek of opmerkings is welkom.
Geniet dit.


Song: N1 Roete
Band:Klopjag
Album: 15de Laan
Tabbed by: Phillip Fischer (boskultuur@gmail.com)


  A       D5       A       D    Asus2/G#     F#m       
  X X O     X X O       O X X O    X X   O X   
=========== =========== =========== =========== =========== =========== 
| | | | | | | | | | | | | | | | | | | | | | | | | | | | | | | | | | | | 
x x x x X x 5 | | | | | | | | | | | | | | | | | | | | | x | | 2 | | | | | | 
| | | | | | | | | | | | | | | | | | | | | | | | | | | | | | | | | | | | 
----------- ----------- ----------- ----------- ----------- ----------- 
| | | | | | | | | | | | | | | | | | | | | | | | | | | | | | | | | | | | 
| | | x | | | | | X | | | | x x x | | | | x | x | | | | | | x x x x x x 
| | | | | | | | | | | | | | | | | | | | | | | | | | | | | | | | | | | | 
----------- ----------- ----------- ----------- ----------- ---------- 
| | | | | | | | | | | | | | | | | | | | | | | | | | | | | | | | | | | | 
| x x | | | | | | | X | | | | | | | | | | | x | x | | | | | | x x | | | 
| | | | | | | | | | | | | | | | | | | | | | | | | | | | | | | | | | | | 
----------- ----------- ----------- ----------- ----------- ----------- 
1 3 4 2 1 1 - - - 2 3 - - - 1 2 3 - - - - 1 3 2 3 - - 1 - - 1 3 4 1 1 1 


    E

O       O O
===========
| | | | | |
| | | x | |
| | | | | |
-----------
| | | | | |
| x x | | |
| | | | | |
-----------
| | | | | |
| | | | | |
| | | | | |
-----------
- 2 3 1 - -


Verloop van die lied: Intro -> Vers 1 -> Vers 2 -> Koor -> Vers 3 -> Koor -> Outro



INTRO                                                                
     A                                              D5                    
        
E||---------------------5--|----------------7----|-----------------------|
B||-------------5----------|---------------------|----------3------------|
G||--------6---------6-----|---------------------|-------2-------2-------|
D||--7---------------------|---------------------|--0--------------------|
A||------------------------|---------------------|-----------------------|
E||------------------------|---------------------|-----------------------|


                           A                                    D5          
    
------------------------|--------------------5--|-----------------------0--|
------------------------|------------5----------|-----------------------3--|
--------------4---------|-------6---------6-----|-----------------------2--|
-------2-/-4------------|--7--------------------|---------------0----------|
------------------------|-----------------------|--5-\-4-\-2---------------|
------------------------|-----------------------|--------------------------|


-------0-------------|-----------------------|
-------3-------------|-----------------------|
-------2-------------|---------4-------------|
---------------------|--2-/-4----------------|
---------------------|-----------------------|
---------------------|-----------------------|


VERSE

  A

|--------------0-----------|
|--------2-----------2-----|
|-----2-----2-----2-----2--|
|--------------------------|
|--0-----------------------|
|--------------------------|
                             D                        

--------------0-----------|--------------2-----------|
--------2-----------2-----|--------3-----------3-----|
-----2-----2-----2-----2--|-----2-----2-----2-----2--|
--------------------------|--0-----------------------|
--0-----------------------|--------------------------|
--------------------------|--------------------------|


                             A           Asus2/G#           
     
--------------2-----------|--------------------------------|
--------3-----------3-----|--------2-----------------0-----|
-----2-----2-----2-----2--|-----2-----2-----------2-----2--|
--0-----------------------|--------------------------------|
--------------------------|--0-----------------------------|
--------------------------|--------------4-----------------|


  F#m                         D                          E                     
           
---------------2-----------|--------------2-----------|--------------0--------|
---------2-----------2-----|--------3-----------3-----|--------0--------------|
------2-----2-----2-----2--|-----2-----2-----2-----2--|-----1-----1-----------|
---------------------------|--0-----------------------|-----------------------|
--4------------------------|--------------------------|-----------------------|
---------------------------|--------------------------|--0--------------------|

A                                                   
     
--------------0-----------|--------------0-----------|
--------2-----------2-----|--------2-----------2-----|
-----2-----2-----2-----2--|-----2-----2-----2-----2--|
--------------------------|--------------------------|
--0-----------------------|--0-----------------------|
--------------------------|--------------------------|


  D                                                   
     
--------------2-----------|--------------2-----------|
--------3-----------3-----|--------3-----------3-----|
-----2-----2-----2-----2--|-----2-----2-----2-----2--|
--0-----------------------|--0-----------------------|
--------------------------|--------------------------|
--------------------------|--------------------------|


  A           D              E                        
     
--------------------------|--------------0-----------|
--------2-----------3-----|--------0-----------0-----|
-----2-----2-----2-----2--|-----1-----1-----1-----1--|
--------------0-----------|--------------------------|
--0-----------------------|--------------------------|
--------------------------|--0-----------------------|


  A                                                   
     
--------------0-----------|--------------0-----------|
--------2-----------2-----|--------2-----------2-----|
-----2-----2-----2-----2--|-----2-----2-----2-----2--|
--------------------------|--------------------------|
--0-----------------------|--0-----------------------|
--------------------------|--------------------------|


CHORUS

  D                        

|--------------2-----------|
|--------3-----------3-----|
|-----2-----2-----2-----2--|
|--0-----------------------|
|--------------------------|
|--------------------------|


  E                          A           Asus2/G#           
  
--------------0-----------|--------------------------------|
--------0-----------0-----|--------2-----------------0-----|
-----1-----1-----1-----1--|-----2-----2-----------2-----2--|
--------------------------|--------------------------------|
--------------------------|--0-----------------------------|
--0-----------------------|--------------4-----------------|


  F#m                         D                       
   
---------------2-----------|--------------2-----------|
---------2-----------2-----|--------3-----------3-----|
------2-----2-----2-----2--|-----2-----2-----2-----2--|
---------------------------|--0-----------------------|
--4------------------------|--------------------------|
---------------------------|--------------------------|


  E                          A           Asus2/G#           
   
--------------0-----------|--------------------------------|
--------0-----------0-----|--------2-----------------0-----|
-----1-----1-----1-----1--|-----2-----2-----------2-----2--|
--------------------------|--------------------------------|
--------------------------|--0-----------------------------|
--0-----------------------|--------------4-----------------|


  F#m                         D                        
   
---------------2-----------|--------------2-----------|
---------2-----------2-----|--------3-----------3-----|
------2-----2-----2-----2--|-----2-----2-----2-----2--|
---------------------------|--0-----------------------|
--4------------------------|--------------------------|
---------------------------|--------------------------|


  E                          A           Asus2/G#           
   
--------------0-----------|--------------------------------|
--------0-----------0-----|--------2-----------------0-----|
-----1-----1-----1-----1--|-----2-----2-----------2-----2--|
--------------------------|--------------------------------|
--------------------------|--0-----------------------------|
--0-----------------------|--------------4-----------------|


  F#m                         D                        
     
---------------2-----------|--------------2-----------|
---------2-----------2-----|--------3-----------3-----|
------2-----2-----2-----2--|-----2-----2-----2-----2--|
---------------------------|--0-----------------------|
--4------------------------|--------------------------|
---------------------------|--------------------------|


  E                          A           Asus2/G#           
     
--------------0-----------|--------------------------------|
--------0-----------0-----|--------2-----------------0-----|
-----1-----1-----1-----1--|-----2-----2-----------2-----2--|
--------------------------|--------------------------------|
--------------------------|--0-----------------------------|
--0-----------------------|--------------4-----------------|


  F#m                         D                        
     
---------------2-----------|--------------2-----------|
---------2-----------2-----|--------3-----------3-----|
------2-----2-----2-----2--|-----2-----2-----2-----2--|
---------------------------|--0-----------------------|
--4------------------------|--------------------------|
---------------------------|--------------------------|


  E                          A                        
     
--------------0-----------|--------------0-----------|
--------0-----------0-----|--------2-----------2-----|
-----1-----1-----1-----1--|-----2-----2-----2-----2--|
--------------------------|--------------------------|
--------------------------|--0-----------------------|
--0-----------------------|--------------------------|


Outro

                                                                         
     
|-------5p--4--0----0----|-------5----0----9----|
|------------------------|----------------------|
|------------------------|----------------------|
|-------7------7----7----|----------------------|
|------------------------|----------------------|
|------------------------|----------------------|


                                                                   ^     
      
-------5p--4--0---------|--5--------------0--0--|-----5------------5----|
------------------------|-------2---------3--3--|----------5-------5----|
-------------------6----|-----------------2--2--|-------------6----6----|
-------7------7----7----|------------0----------|------------------7----|
------------------------|-----------------------|------------------7----|
------------------------|-----------------------|------------------5----|


Vers 1
    A
Ou Kaapstad was van altyd af

D
Nog Baie Mooi vir my

A       A2/G#   F#m
en ek sou baie graag net hier teen

D             E             A
Tafelberg wou bly, waar die Kaapse doktor dikwels kwaai oor

D
Duiwelspiek die stad in draai

   A      D       E                  A
en al wat leef en beef die baai wil inwaai


Vers 2


En waar jy ook vandaan kom, daar's 'n plekkie vir jou êrens hier


'n Snelweg selfs van Seepunt af, wat lei na nêrens nie


Maar Rhodes taan sonder woorde, in die tuin en wys my waar die noorde is


En ek weet dis na jou, wat ek verlang


Koor

        D  E  A      A2/G#    F#m
Want my huis is waar my hart is, en my hart is daar by jou

       D  E  A   A2/G#       F#m
Al die vreugde van ou Kaapstad, is teen jou gemeet maar flou

 D  E  A   A2/G#    F#m
Want my huis is waar my hart is, en my hart is in my motor

 D  E            A  A2/G#    F#m
Wat die N1 roete noord volg, tot by jou, tot by jou

 D  E       A
Wat die N1 roete noord volg, tot by jou



Vers 3


Toe Diaz hier verby is, op die ruwe rug van 'n storm see


het hy die plek die naam, Stormkaap gegee


Miskien het hy ook daardie dag, ook na sy huis verlang


Soos ek vanaand teen Tafelberg se hang

---------------------------
This file passed through:
       Absolute Tabs
   http://www.tabs.co.za
---------------------------