Guitar tablature for N1 Roete by Klopjag
#----------------------------------PLEASE NOTE---------------------------------#
#This file is the author's own work and represents their interpretation of the #
#song. You may only use this file for private study, scholarship, or research. #
#------------------------------------------------------------------------------##

     SONG: N1 Roete
   ARTIST: Klopjag    
    ALBUM: 15de laan
     TYPE: Guitar Tablature
TABBED BY: Muller Fourie
COMMENTS: It's just the intro of the song, hoop dit kan help.
           Dis kort maar my eerste tab. God Bless.



e-----0-5~-------0----------------0-5~-------------0--0-------------
B---2------0--------------------2-----------------------------------
G---2---------2----2---2h4-4----2------------------2--2-------------
D---2---------------------------2-----------------------------------
A----------------------------------------4h5-----------------7~-----
E--------------------------------------------7-5---------5h7--------


---------------------------
This file passed through:
       Absolute Tabs
   http://www.tabs.co.za
---------------------------