Guitar tablature for My Prayer To God by Downfall (tabbed by Nevay)
#----------------------------------PLEASE NOTE---------------------------------#
#This file is the author's own work and represents their interpretation of the #
#song. You may only use this file for private study, scholarship, or research. #
#------------------------------------------------------------------------------##

INTRO
  gt2 (clean) x4
1|-10---10---10---18----18----18----13----13----13----15----15----15-|
2|----7----7----7----15----15----15----10----10----10----12----12----|
3|-------------------------------------------------------------------|

gt1 x2 (on 3rd gt2 riff)
2|----------------------------------------------------10---------|
3|-10---10---10---10---10---10---9----9----9----10-------12-10-9-|
4|----7----7----7----8----8----8---10---10---10----10------------|

CHORUS (gt1 dist)
3|-----10-------7-7---|
4|-0---10---3---7-7-7-|
5|-0---8----3---5-5h7-|
6|-0---8----3---5-5h7-|

  gt2 (dist)
1|-10---10---10---18----18----18----13----13----13----15----15----15-|
2|----7----7----7----15----15----15----10----10----10----12----12----|

PRE-VERSE
  gt1+2 dist
3|-----------10-------------10-10-10/12-|
4|---0-03-03/10-----0-03-03/10-10-10/12-|
5|-000-03-03/8----000-03-03/8--8--8 /10-|
6|-000-03-03/8----000-03-03/8--8--8 /10-|
   ..             ..

3|-----------10-----|
4|---0-03-03/10---5-|
5|-000-03-03/8----5-|
6|-000-03-03/8----5-|
   ..

VERSE (gt1+2 dist)
4|---0-03-03/8-|    |-5-|
5|-000-03-03/8-|    |-5-|
6|-000-03-03/8-| x3 |-5-|
   ..  .
3|-------------|    |-----10-|
4|---0-03-03/8-|    |-5---10-|
5|-000-03-03/8-|    |-5---8--|
6|-000-03-03/8-| x3 |-5---8--|
   ..  .

INTERLUDE (clean)
  gt1
2|-------------------------------------------|
3|-10---10---10--9---9---9---10---10---10---9---9---9---|
4|----7----7---7---7---7---7----8----8----8---8---8---8-|

3|-10---10---10--9---9---9---10---10---10---9 (let ring) -|
4|----7----7---7---7---7---7----8----8----8---           -|

CHORUS x2 (dist)
  gt1
3|-----10-------7-7---|
4|-0---10---3---7-7-7-|
5|-0---8----3---5-5h7-|
6|-0---8----3---5-5h7-|

  gt2 (dist)
1|-10---10---10---18----18----18----13----13----13----15----15----15-|
2|----7----7----7----15----15----15----10----10----10----12----12----|

PRE-VERSE
  gt1+2 (dist)
3|-----------10-------------10-10-10/12-|
4|---0-03-03/10-----0-03-03/10-10-10/12-|
5|-000-03-03/8----000-03-03/8--8--8 /10-|
6|-000-03-03/8----000-03-03/8--8--8 /10-|
   ..             ..

3|-----------10-----|
4|---0-03-03/10---5-|
5|-000-03-03/8----5-|
6|-000-03-03/8----5-|
   ..

VERSE (gt1+2 dist)
4|---0-03-03/8-|    |-5-|
5|-000-03-03/8-|    |-5-|
6|-000-03-03/8-| x3 |-5-|
   ..  .
3|-------------|    |-----10-|
4|---0-03-03/8-|    |-5---10-|
5|-000-03-03/8-|    |-5---8--|
6|-000-03-03/8-| x3 |-5---8--|
   ..  .

INTERLUDE (clean)
  gt1
2|-------------------------------------------|
3|-10---10---10--9---9---9---10---10---10---9---9---9---|
4|----7----7---7---7---7---7----8----8----8---8---8---8-|

3|-10---10---10--9---9---9---10---10---10---9 (let ring) -|
4|----7----7---7---7---7---7----8----8----8---           -|

CHORUS x2 (dist)
  gt1
3|-----10-------7-7---|
4|-0---10---3---7-7-7-|
5|-0---8----3---5-5h7-|
6|-0---8----3---5-5h7-|

  gt2
1|-10---10---10---18----18----18----13----13----13----15----15----15-|
2|----7----7----7----15----15----15----10----10----10----12----12----|

BRIDGE (part1)
  gt2 dist
4|-0-         ---|
5|-0 (fade out) -|
6|-0-         ---|

BRIDGE (part2)
  gt1 clean
2|----10p8--------------------8h10----10-|
3|------------10p9----9h10---------------|
4|-0--------0-------0-------0-------0----|x4

2|----10p8--------------------8h10----10-----10p8--------------------8h10----10-|
3|------------10p9----9h10---------------------------10p9----9h10---------------|
4|-8--------8-------8-------8-------8-----7--------7-------7-------7-------7----|

  this part x2
2|----10p8--------------------8h10----10-|
3|------------10p9----9h10---------------|
4|-0--------0-------0-------0-------0----|x2

2|----10p8--------------------8h10----10-----10p8--------------------8h10----10-|
3|------------10p9----9h10---------------------------10p9----9h10---------------|
4|-8--------8-------8-------8-------8-----7--------7-------7-------7-------7----|

END on
  gt1
4|-0 (fade out) -|

INTERLUDE
  gt2 x2
1|----5--5-5-55--55------------------------------------------------------------|
2|----6--6-6-66--66--10--10-10-1010--1010--8--8-8-88--88--11--11-11-1111--1111-|
3|----7--7-7-77--77--9---9--9--9-9---9-9---9--9-9-99--99--12--12-12-1212--1212-|
4|-0-------------00--0---0--0--0-0---0-0---0--0-0-00--00--0---0--0--0-0---0-0--|
5|-0-----------------0---------------------0--0-0-00------0--------------------|
6|-0-----------------0---------------------0--------------0--------------------|

on 2nd end on
1|-5-|
2|-6-|
3|-7-|
4|-0-|
5|-0-|
6|-0-|

--6 1/2 count pause--

CHORUS (dist)
  gt1 and gt2
3|-10-------7-7---|
4|-10---3---7-7-7-|
5|-8----3---5-5h7-|
6|-8----3---5-5h7-|

3|-----10-------7-7----------|
4|-0---10---3---7-7-7-7-5--8-|
5|-0---8----3---5-5h7-7-5--8-|
6|-0---8----3---5-5h7-7-5--8-|

  gt1
3|-9---10-----|
4|----------8-|

---------------------------
This file passed through:
       Absolute Tabs
   http://www.tabs.co.za
---------------------------