Guitar tablature for Indigo girl by Watershed
#----------------------------------PLEASE NOTE--------------------------------#
#This file is the author's own work and represents their interpretation of the#
#song. You may only use this file for private study, scholarship, or research.#
#-----------------------------------------------------------------------------#
#-- File created with Instab - http://www.pconline.com/~smcarey/instab.html --#
#-----------------------------------------------------------------------------#

Author/Artist: Watershed
Title: Indigo Girl
Album: In The Meantime
Transcribed by: Daniel Parmenter (Crazed_Ferret)
Email: crazed_ferret@hotmail.com

Tuning: Drop D (i.e. tune your low E string down to D)(this is the only way
that you can get the right bass notes on a guitar without needing a bass)

Capo 1

Main riff:
-------0--------------0--------------0-------------0--------------------------
-----3---3---3------3---3---3------3---3--3------3---3-----3------------------
---2-------2------2-------2------2------2------2-------2-2--------------------
------------------------------------------------------------------------------
---------------------------------------------0--------------------------------
-0--------------2--------------5----------------------------------------------

This is all I've got so far. Lots of notes probably missing, and it's only
the intro/verse, but I've only been playing for a year and a half! If you
have anything to add to this tab, please e-mail me (see above). As long as I
get credit for starting the tab off, I'm happy :) Hopefully ppl will add to
it until it's complete.


---------------------------
This file passed through:
       Absolute Tabs
   http://www.tabs.co.za
---------------------------