Bass tablature for Psalms En Gesange by The Buckfever Underground (tabbed by crumpuppet)
#----------------------------------PLEASE NOTE---------------------------------#
#This file is the author's own work and represents their interpretation of the #
#song. You may only use this file for private study, scholarship, or research. #
#------------------------------------------------------------------------------##

Tab deur Hannes van Zyl

The Buckfever Underground - Psalms En Gesange

Daar is net een riff wat herhaal word.

riff 1

G|-----------------------------------|
D|-0---7---0-0-7-8----8------8--7----|
A|----------------------0--8---------|
E|------------------6----------------|



alternatiewe riff 1 (dieper maar bietjie moeiliker)

G|-----------------------------------------|
D|-----------------------------------------|
A|-----12-------12-13-----13--0----13--12--|
E|-10-----10-10--------6--------13---------|

---------------------------
This file passed through:
       Absolute Tabs
   http://www.tabs.co.za
---------------------------