Guitar tablature for Gentleman's song by Karen Zoid
#----------------------------------PLEASE NOTE---------------------------------#
#This file is the author's own work and represents their interpretation of the #
#song. You may only use this file for private study, scholarship, or research. #
#------------------------------------------------------------------------------##

     SONG: Gentleman's Song 
   ARTIST: Karen Zoid
    ALBUM: Chasing The Sun

     TYPE: Guitar Tablature
TABBED BY: *Zel*
    

Into
 Gsus4  A  Bm   D
e:--------0-------0--------------------------------------3---2------------------
b:------------3---------2----0----2--------3---0----3-----------3---------------
g:----------------------------------------4-------------------------------------
d:---------------------------------------4---------------0----------------------
a:----------------------0---------------2---------------------------------------
e:--------3---------------------------------------------------------------------

The chord progression for most of the song is:

 Gsus4   A        Bm       D 
e:------3--3--3--3---x---0---0---0---0---x----0--0--0--0--x---2--2--2--2--x---------
b:------3--3--3--3---x---2---2---2---2---x----3--3--3--3--x---3--3--3--3--x---------
g:------0--0--0--0---x---2---2---2---2---x----4--4--4--4--x---2--2--2--2--x---------
d:------0--0--0--0---x---2---2---2---2---x----4--4--4--4--x---0--0--0--0------------
a:------2--2--2--2---x---0---0---0---0---x----2--2--2--2--x-------------------------
e:------3--3--3--3---x--------------------------------------------------------------

The "x" thingy means you slap the string with your right hand, if you listen to
the cd you'll hear it clearly. Enjoy!


---------------------------
This file passed through:
       Absolute Tabs
   http://www.tabs.co.za
---------------------------