Bass tablature for No One Turns Me On Like You Do by The Cheap Bad Habits (tabbed by Jed)
#----------------------------------PLEASE NOTE---------------------------------#
#This file is the author's own work and represents their interpretation of the #
#song. You may only use this file for private study, scholarship, or research. #
#------------------------------------------------------------------------------##

NO ONE TURNS ME ON LIKE YOU DO

http://soundcloud.com/the-cheap-bad-habits/the-cheap-bad-habits

INTRO
G--------------------------------------------------------------------------------------
D--------------------------------------------------------------------------------------
A-----------------------------------------------------------5--------
E--0-0-0-0-0-0-0-0-3-3-3-3-3-3-3--5-5-5-5-5-5-5-5--7-7-5-7----7-5--- X2

VERSE
G--------------------------------------------------------------------------------------
D--------------------------------------------------------------------------------------
A----------------------------------------------------------5--------
E--0-0-0-0-0-0-0-0-3-3-3-3-3-3-3--5-5-5-5-5-5-5-5--7-7-5-7----7-5--- X3

G--------------------------------------------------------------------------------------
D--------------------------------------------------------------------------------------
A--------------------------------------------------------------------------------------
E--0-0-0-0-0-0-0-0-3-3-3-3-3-3-3--5-5-5-5-5-5-5-5--7-7-7-7-7-5-3 --- X3





CHORUS
G-------------------------------------------------------------------------
D-------------------------------------------------------------------------
A-------------------------------------------------------------------------
E--0--0-0-3-5--3-5-3-5-(s)-7-7-7-7-7-5-3 ----------------------- X3

BRIDGE
G-------------------------------------------------------------------------
D-------------------------------------------------------------------------
A-------------------------5--------------------------------------------
E--0----3----5----7-7-5-7---7-5---------------------------------------

G-------------------------------------------------------------------------
D-------------------------------------------------------------------------
A-------------------------------------------------------------------------
E--0----3----5----7-7-7-7-7-5-3-------------------------------------

END
G-------------------------------------------------------------------------
D-------------------------------------------------------------------------
A-------------------------------------------------------------------------
E-7-7-7-7-7-5-3----7-7-7-7-7-5-3-----7-7-7-7-7-5-3-0--------

SONG STRUCTURE
• INTRO X2
• VERSE
• CHORUS
• VERSE
• CHORUS
• INTRO (SOLO)
• BRIDGE
• CHORUS
• END


LYRICS

There aint nobody in this world that I know
Who can shake me down woman the way that you do
You got grace and impeccable style
You got the face of an angel and a dirty smile

I been around the block a time or two
I been to hell and back just lookin’ for you
I searched this whole world through and through
Forget about it sugar,

No one turns me one like you do X 4

Spinnin’ that record I don’t know what to chose
You can shake your ass to disco or get down to the blues
I’m your loverboy, you make me feel like a man
You can set me on fire with the touch of your hand



I been to Venus, I been to Peru
I been to hell and back just lookin’ for you
I searched this whole world through and through
Forget about it sugar,

No one turns me one like you do X 4

Not Helen of Troy, not Bridgette Bardot
Not Mary-Tyler Moore or Marilyn Monroe
You’re the only one who can turn me on
Forget about it sugar,

No one turns me one like you do X 4

---------------------------
This file passed through:
       Absolute Tabs
   http://www.tabs.co.za
---------------------------