Guitar tablature for You Will Burn by New Kind Of Normal
#----------------------------------PLEASE NOTE---------------------------------#
#This file is the author's own work and represents their interpretation of the #
#song. You may only use this file for private study, scholarship, or research. #
#------------------------------------------------------------------------------##

     SONG:You Will Burn
   ARTIST:New Kind Of Normal
    ALBUM:Demo CD (Free On Website)
  WEBSITE: www.newkindofnormal.co.za


     TYPE: Guitar Tablature
TABBED BY: sseug
    EMAIL:
COMMENTS:Standerd E
          x-demp      
          p-pull off
Intro
e:-------------------------------------------------------------------------------
b:-------------------------------------------------------------------------------
g:---------------------------------------------------Repeat x 4------------------
d:----------------------11-------------------------------------------------------
a:------------11--11-12----12--12-11-9-12--11-9-11-9-----------------------------
e:-9--9-11-12--------------------------------------------------------------------

Verse 1
e:-------------------------------------------------------------------------------
b:-------------------------------------------------------------------------------
g:-----------------------Repeat x 2----------------------------------------------
d:-7-6---------6-4---------------------------------------------------------------
a:-5-4---4-5---4-2---7-----------------------------------------------------------
e:-------2-3---------5-----------------------------------------------------------

Verse 2
e:-------------------------------------------------------------------------------
b:-------------------------------------------------------------------------------
g:---------------------------------------------------------------Repeat x 2------
d:-x6x6x6x6x6x6x6x6--------------------------------------------------------------
a:-x4x4x4x4x4x4x4x4x5x5x5x5x5x5x5x5x9x9x9x9x9x9x9x9x7x7x7x7x7x7-9----------------
e:-----------------x3x3x3x3x3x3x3x3x7x7x7x7x7x7x7x7x5x5x5x5x5x5-7----------------

Repeat Intro
Repeat Verse 1
Repeat Verse 2
Repeat Intro


Break 1
e:-------------------------------------------------------------------------------
b:-------------------------------------------------------------------------------
g:-------------------------------------------------------------------------------
d:-----------------------------x12x12x12x12-12-x11x11x11x11-11-x11x11-11---------
a:-x9x9x9x9-9-x9x9x9x9-9-x9x9-9--------------------------------------------------
e:-------------------------------------------------------------------------------


e:-------------------------------------------------------------------------------
b:-------------------------------------------------------------------------------
g:--------------------------------------------------------------------Repeat x 2-
d:-----------------------------x12x12x12x12-12-----------------------------------
a:-x9x9x9x9-9-x9x9x9x9-9-x9x9-9---------------x11x11x11x11-11-x12x12-12----------
e:-------------------------------------------------------------------------------

Break 2
e:-------------------------------------------------------------------------------
b:-------------------------------------------------------------------------------
g:-------------------------------------------------------------------------------
d:-------------------------------------------------------------------------------
a:-4x4x4x4x4x4x4x4x4x4x4x4x4x4x4x4-5x5x5x5x5x5x5x5-7x7x7x7x7x7-9-----------------
e:-2x2x2x2x2x2x2x2x2x2x2x2x2x2x2x2-3x3x3x3x3x3x3x3-5x5x5x5x5x5-7-----------------


e:-------------------------------------------------------------------------------
b:-------------------------------------------------------------------------------
g:-------------------------------------------------------------------------------
d:-------------------------------------------------------------------------------
a:-4x4x4x4x4x4x4x4x4x4x4x4x4x4x4x4-9x9x9x9x9x9x9x9-5x5x5x5x5x5-7-----------------
e:-2x2x2x2x2x2x2x2x2x2x2x2x2x2x2x2-7x7x7x7x7x7x7x7-3x3x3x3x3x3-5-----------------

Solo
e:-------------------------------------------------------------------------------
b:-------------------------------------------------------------------------------
g:-------------------------------------------------------------------------------
d:---------------------------11-9-12-11-9-11-12p11p9-12p11p9-12p11p9-14-12�11----
a:-9--7-9-10-12-10-12-9--7-9-----------------------------------------------------
e:-------------------------------------------------------------------------------

e:-------------------------------------------------------------------------------
b:-------------------------------------------------------------------------------
g:-------------------------------------------------------------------------------
d:-9-11-12-14--------------------------------------------------------------------
a:-------------------------------------------------------------------------------
e:-------------------------------------------------------------------------------

Repeat Intro
Repeat Verse 1
Repeat Verse 2


---------------------------
This file passed through:
       Absolute Tabs
   http://www.tabs.co.za
---------------------------