Guitar tablature for Exodus by Klopjag
#----------------------------------PLEASE NOTE---------------------------------#
#This file is the author's own work and represents their interpretation of the #
#song. You may only use this file for private study, scholarship, or research. #
#------------------------------------------------------------------------------##


Artist:     Klopjag
Song:       Exodus
Album:      15de Laan 
Getab deur: swjprins@yahoo.com   

My eerste song wat ek tab so ek twyfel of dit 100% korrek is. Dis net die een kitaar se
tab so as jy 'n bydrae kan lewer of corrections kan maak (of die tweede kitaar se tabs
voor my uitwerk) e-mail my by swjprins@yahoo .com.


INTRO:

e ------------------------------------------------------------------------------------------------------------------------------------------------------------
B ----------------3------------------3------------------3--------------------------------------------------3--------------------3----------------------3-
G ---------------------0-----------------0-----------------0-----------3/4/3--0------------------------------0----------------------0------------------2-
D ----------------------------------------------------------------0-------------------------------------------------------------------------0---------------0
A ------------------------------------------------3--3---------------------------------------------------------------------------------------------3--3-----
E --------3--3---------------3--3------------------------------------------------------------------3--3---------------3--3--------------------------------

VERSE:
e ------------------------------------------------------------------------------------------------------------------------------------------------------------
B ----------------3------------------3------------------3--------------------------------------------------3--------------------3---------------------------
G ---------------------0-----------------0-----------------0-----------3/4/3--0------------------------------0----------------------0----------3/4/3--0-
D ----------------------------------------------------------------0--------------------------------------------------------------------------0----------------
A ------------------------------------------------3--3--------------------------------------------------------------------------------------------------------
E --------3--3---------------3--3------------------------------------------------------------------3--3---------------3--3--------------------------------


                                       C 2                        D                          G

e ----------------------------3---------------------2-----------------------3-------------------------------------------------------------------------------
B ----------------------------3---------------------3-----------------------3-------------------------------------------------------------------------------
G ----------------------------0---------------------2-----------------------0--------------------------------------------------------------------------------
D ----------------------------2---------------------0-----------------------0--------------------------------------------------------------------------------
A ---------------------------3----------------------------------------------2-------------------------------------------------------------------------------
E---------------------------------------------------------------------------3--------------------------------------------------------------------------------

  "�rug����.merke����.dier�."

(VERSE)

CHORUS:

            D                          G                       D                              C2
e --------2---------------------3--------------------2------------------------3------------------------------------------------------------------------------
B -------3---------------------3--------------------3------------------------3-------------------------------------------------------------------------------
G -------2---------------------0--------------------2------------------------0------------------------------------------------------------------------------
D ------0----------------------0--------------------0------------------------0------------------------------------------------------------------------------
A -----------------------------2----------------------------------------------2------------------------------------------------------------------------------ E------------------------------3----------------------------------------------3------------------------------------------------------------------------------       "�       begin ek te skreeuuuuuuuu"


(Ruil nou tussen G en C2 vir so rukkie en begin weer met die verse)



OUTRO:

G
e ----------------------------------------------------------------------------3---------------------------------------------------------------------------
B ----------------------------------------------------------------------------3---------------------------------------------------------------------------
G ----------------------------------------------------------------------------0----------------------------------------------------------------------------
D ----------------------------------------------------------------------------0----------------------------------------------------------------------------
A -------3---2-3--5---3--2---0-------------------------------------------2----------------------------------------------------------------------------
E------------------------------------------------------------------------------3----------------------------------------------------------------------------

"�Stellenbosch is ver��. maar ek dink ek gaan"


Lyrics : (Vir die met pirated CD's)

Verse:
Ek het die nommer van 'n engel op my arm
'n Nota oor begeertes teen my muur.
Baie nuwe kepe op my kerfstok.
Op my rug, op my rug die merke van 'n dier.

En elke bier wat die waitresds bring maak haar mooier
En elke keer wat die son opkom is dit rooier
Iets in my o� belemmer my view
As ek val in die sand begin ek te skreeu   (speel hier die chorus)

Ek gaan op 'n date saam met Desember
Al my vriende weet ek verlang na November
Sy het my vertel sy sou bel
Nou gaan maak ek weer 'n draai in my jongmanshart se hel       (speel hier die chorus)

Sy s� kom kuier vir my in Stellenbosch
Ek s� Stellenbosch is ver     (outro)
Maar ek dink ek gan
----------------------------------------------------------------------------------------------------------------------------

Daar is hy. Hoop dit help en stuur asb. vir my correction of enige tabs
wat jy dalk het (veral bietjie gospel, sukkel my gat af om dit in die hande te kry) Tot 'n ander dag.

Cheers






---------------------------
This file passed through:
       Absolute Tabs
   http://www.tabs.co.za
---------------------------