Guitar tablature for Verdwyn by Valiant Swart
#----------------------------------PLEASE NOTE---------------------------------#
#This file is the author's own work and represents their interpretation of the #
#song. You may only use this file for private study, scholarship, or research. #
#------------------------------------------------------------------------------##

     SONG: Verdwyn (Song vir Katryn)
   ARTIST: Valient Swart
    ALBUM:
  WEBSITE:

     TYPE: Guitar Tablature
TABBED BY: Werner Brand
    EMAIL: 13113178@puk.co.za
COMMENTS: Great guitaar song van Valient.  Speel saam met die song, dit klink alles reg.  
    Laat weet asb as daar foute is!

Slide       : s
Hammer on   : h
Pull off    : p
Bend        : b
Strum up    : /
Strum down  : \


Guitar 1: Distorted electric
Guitar 2: Steel string acoustic

Intro:
  Guitar 1
E|---------------------------------------------------------------|
B|-Begin-met-guitar-volume-laag-en-draai-dit-stadig-harder-------|
G|---------------------------------------------------------------|
D|---------------------------------------------------------------|
A|--7~~~~--------------------------------------------------------|
E|--0~~~~--------------------------------------------------------|

  Guitar 1
E|---------------------------------------------------------------|
B|---------------------------------------------------------------|
G|--------12�9~-----7h9-7~---------------------------------------| Speel
D|-----9---------------------9--7--------------------------------| 4 keer
A|--7------------------------------7~~---------------------------|
E|--0------------------------------------------------------------|
|              
|Guitar 2   \   \ /    \   \ /    \   \ /   \ \
E|-----------0---0-0----2---2-2----0---0-0---0-0-----------------|
B|-----------0---0-0----3---3-3----0---0-0---0-0-----------------|
G|-----------1---1-1----2---2-2----1---1-1---1-1-----------------|
D|-----------2---2-2----0---0-0----2---2-2---2-2-----------------|
A|-----------2---2-2---------------2---2-2---2-2-----------------|
E|-----------0---0-0---------------0---0-0---0-0-----------------|


Verse:   Speel GUITAR 2 se intro deel vir die vers ook.

Herinneringe waai weg soos winter datums
Jou beeld ? in my hart en my asem
Deur die le� geboue van blinde verlange
Het ek na jou geloop en roep vir maande

  Guitar 1
E|---------------------------------------------------------------|
B|---------------------------------------------------------------|
G|--7~---------2~------------------------------------------------|
D|--7~---------2~---------2~-------------------------------------|
A|--5~---------0~---------2~-------------------------------------|
E|------------------------0~-------------------------------------|
|
|Guitar 2     \   \ /    \  \ /   \ \
E|--2---2-2----0---0-0----0--0-0---0-0---------------------------|
B|--3---3-3----2---2-2----0--0-0---0-0---------------------------|
G|--2---2-2----2---2-2----1--1-1---1-1---------------------------|
D|--0---0-0----2---2-2----2--2-2---2-2---------------------------|
A|-------------0---0-0----2--2-2---2-2---------------------------|
E|------------------------0--0-0---0-0---------------------------|

Maar jy was altyd iewers in die gange of agter �n gordyn
En het ewig vlietend agter my om die hoek verdwyn

  Guitar 1
E|---------------------------------------------------------------|
B|-----------9---------------------------------------------------|
G|--9--11-11---11~--9-7-11-9~------------------------------------|
D|---------------------------------------------------------------|
A|---------------------------------------------------------------|
E|---------------------------------------------------------------|
|
|Guitar 2   \   \ /    \   \ /    \   \ /   \ \
E|-----------0---0-0----2---2-2----0---0-0---0-0-----------------|
B|-----------0---0-0----3---3-3----0---0-0---0-0-----------------|
G|-----------1---1-1----2---2-2----1---1-1---1-1-----------------|
D|-----------2---2-2----0---0-0----2---2-2---2-2-----------------|
A|-----------2---2-2---------------2---2-2---2-2-----------------|
E|-----------0---0-0---------------0---0-0---0-0-----------------|
  Verdwyn
  Verdwyn


Guitar 1
E|---------------------------------------------------------------|
B|---------------------------------------------------------------|
G|--------12�9~-----7h9-7~---------------------------------------|Speel 2
D|-----9---------------------9--7--------------------------------|keer
A|--7------------------------------7~~---------------------------|
E|--0------------------------------------------------------------|
|              
|Guitar 2   \   \ /    \   \ /    \   \ /   \ \
E|-----------0---0-0----2---2-2----0---0-0---0-0-----------------|
B|-----------0---0-0----3---3-3----0---0-0---0-0-----------------|
G|-----------1---1-1----2---2-2----1---1-1---1-1-----------------|
D|-----------2---2-2----0---0-0----2---2-2---2-2-----------------|
A|-----------2---2-2---------------2---2-2---2-2-----------------|
E|-----------0---0-0---------------0---0-0---0-0-----------------|

Verse:
Ek wandel alleen oor strate en strande
Met niks behalwe die wind in my hande
Ek ken die koue vertrekke van binne en buite
En droe� gesprekke net ek op my eie

Guitar 1
E|---------------------------------------------------------------|
B|---------------------------------------------------------------|
G|--7~---------2~------------------------------------------------|
D|--7~---------2~---------2~-------------------------------------|
A|--5~---------0~---------2~-------------------------------------|
E|------------------------0~-------------------------------------|
|
|Guitar 2     \   \ /    \  \ /   \ \
E|--2---2-2----0---0-0----0--0-0---0-0---------------------------|
B|--3---3-3----2---2-2----0--0-0---0-0---------------------------|
G|--2---2-2----2---2-2----1--1-1---1-1---------------------------|
D|--0---0-0----2---2-2----2--2-2---2-2---------------------------|
A|-------------0---0-0----2--2-2---2-2---------------------------|
E|------------------------0--0-0---0-0---------------------------|

Maar jy was altyd iewers in die gange of agter �n gordyn
En het ewig vlietend agter my om die hoek verdwyn


Guitar 1
E|---------------------------------------------------------------|
B|---------------------------------------------------------------|
G|--~-------------------7----------------------------------------|
D|-----------2----------7----------2---------2-2-----------------|
A|-----------2----------5----------2---------2-2-----------------|
E|-----------0---------------------0---------0-0-----------------|
|
|Guitar 2   \   \ /    \   \ /    \   \ /   \ \
E|-----------0---0-0----2---2-2----0---0-0---0-0-----------------|
B|-----------0---0-0----3---3-3----0---0-0---0-0-----------------|
G|-----------1---1-1----2---2-2----1---1-1---1-1-----------------|
D|-----------2---2-2----0---0-0----2---2-2---2-2-----------------|
A|-----------2---2-2---------------2---2-2---2-2-----------------|
E|-----------0---0-0---------------0---0-0---0-0-----------------|
  Verdwyn
  Verdwyn

Guitar 1
E|---------------------------------------------------------------|
B|-----------9---------------------------------------------------|
G|--9--11-11---11~--9-7-11-9~------------------------------------|
D|---------------------------------------------------------------|
A|---------------------------------------------------------------|
E|---------------------------------------------------------------|
|
|Guitar 2   \   \ /    \   \ /    \   \ /   \ \
E|-----------0---0-0----2---2-2----0---0-0---0-0-----------------|
B|-----------0---0-0----3---3-3----0---0-0---0-0-----------------|
G|-----------1---1-1----2---2-2----1---1-1---1-1-----------------|
D|-----------2---2-2----0---0-0----2---2-2---2-2-----------------|
A|-----------2---2-2---------------2---2-2---2-2-----------------|
E|-----------0---0-0---------------0---0-0---0-0-----------------|
  Verdwyn
  Verdwyn


Guitar 1
E|---------------------------------------------------------------|
B|---------------------------------------------------------------|
G|--------12�9~-----7h9-7~---------------------------------------|Speel 2
D|-----9---------------------9--7--------------------------------|keer
A|--7------------------------------7~~---------------------------|
E|--0------------------------------------------------------------|
|              
|Guitar 2   \   \ /    \   \ /    \   \ /   \ \
E|-----------0---0-0----2---2-2----0---0-0---0-0-----------------|
B|-----------0---0-0----3---3-3----0---0-0---0-0-----------------|
G|-----------1---1-1----2---2-2----1---1-1---1-1-----------------|
D|-----------2---2-2----0---0-0----2---2-2---2-2-----------------|
A|-----------2---2-2---------------2---2-2---2-2-----------------|
E|-----------0---0-0---------------0---0-0---0-0-----------------|


|Guitar 2   \   \ /    \   \ /    \   \ /   \ \
E|-----------0---0-0----2---2-2----0---0-0---0-0-----------------|
B|-----------0---0-0----3---3-3----0---0-0---0-0-----------------|
G|-----------1---1-1----2---2-2----1---1-1---1-1-----------------|
D|-----------2---2-2----0---0-0----2---2-2---2-2-----------------|
A|-----------2---2-2---------------2---2-2---2-2-----------------|
E|-----------0---0-0---------------0---0-0---0-0-----------------|
  Verdwyn
  Verdwyn

Guitar 1
E|---------------------------------------------------------------|
B|---------------------------------------------------------------|
G|--------12�9~-----7h9-7~---------------------------------------|
D|-----9---------------------9--7--------------------------------|
A|--7------------------------------7~~---------------------------|
E|--0------------------------------------------------------------|
|              
|Guitar 2   \   \ /    \   \ /    \   \ /   \ \
E|-----------0---0-0----2---2-2----0---0-0---0-0-----------------|
B|-----------0---0-0----3---3-3----0---0-0---0-0-----------------|
G|-----------1---1-1----2---2-2----1---1-1---1-1-----------------|
D|-----------2---2-2----0---0-0----2---2-2---2-2-----------------|
A|-----------2---2-2---------------2---2-2---2-2-----------------|
E|-----------0---0-0---------------0---0-0---0-0-----------------|


---------------------------
This file passed through:
       Absolute Tabs
   http://www.tabs.co.za
---------------------------