Guitar tablature for Cyber Sakkie by Valiant Swart
#----------------------------------PLEASE NOTE---------------------------------#
#This file is the author's own work and represents their interpretation of the #
#song. You may only use this file for private study, scholarship, or research. #
#------------------------------------------------------------------------------##

Valiant Swart - Cyber Sakkie
Vanaf Kopskoot album

Inleiding
|----------------------------------------------------------
|----------------------------------------------------------
|----------2--2--------------------------------------------
|----------0--0-----------2--2-----------------------------
|-0--0--3--------3--3--0--0--0-----------------------------
|----------------------------------------------------------

|----------------------------------------------------------
|----------------------------------------------------------
|----------2--2--------------------------------------------
|----------0--0-------2------------------------------------
|-0--0--3----------3--0------------------------------------
|----------------3-----------------------------------------
        |hou die bend ------->|
|----------------------------------------------------------
|-5--------8--------10------------10-------10--------------
|-7-b-9---10-b-12---12-b-14---14------14-------------------
|----------------------------------------------------------
|----------------------------------------------------------
|----------------------------------------------------------
        |hou die bend ------->|
|----------------------------------------------------------
|-5--------8--------3-----------3------3-------------------
|-7-b-9---10-b-12---5-b-7---7------7-----------------------
|----------------------------------------------------------
|----------------------------------------------------------
|----------------------------------------------------------

Verse :
|----------------------------------------------------------
|----------------------------------------------------------
|----------2--2--------------------------------------------
|----------0--0-----------2--2-----------------------------
|-0--0--3--------3--3--0--0--0-----------------------------
|----------------------------------------------------------

Refrein :
Inleiding se eerste twee riffs + lead guitar se eerste riff 4 keer

Oor die solo speel hy net die inleiding se riff �n paar keer.

Lirieke :
sakkie speel pinball sakkie speel pool
sakkie het karma sakkie is cool
sakkie drink �n Blackie sakkie drink Tas
sakkie dra leathers sakkie dra �n das

CYBERSAKKIE!!!

sakkie is �n surfer sakkie is �n cat
sakkie het �n cottage sakkie het �n flat
sakkie ry �n kombi sakkie ry �n bike
sakkie rook zombie sakkie hitchhike

CYBERSAKKIE!!!

Kaapstad en Jo�burg, Kingston en Peru
sakkie ken die oerwoud sakkie ken sneeu
sakkie op die underground sakkie op die net
sakkie op die Boeing sakkie in die bed

CYBERSAKKIE!!!




So as enige iemand kans sien om die solo�s te tab mail my maar by :
Jan Plank
jhs@telkomsa.net

---------------------------
This file passed through:
       Absolute Tabs
   http://www.tabs.co.za
---------------------------