Guitar tablature for Vir Almal by Van Coke Kartel (tabbed by G3752)
#----------------------------------PLEASE NOTE---------------------------------#
#This file is the author's own work and represents their interpretation of the #
#song. You may only use this file for private study, scholarship, or research. #
#------------------------------------------------------------------------------##

Van Coke kartel - Vir Almal

Vir vrae/Koreksies e-mail my by gabriel3752@gmail.com

Ek sê Ahoy Daar! Ek is op Twitter! So maak 'n plan en volg die man @GabrielRoux3752

Guitar 1: (rythm) standard

Guitar 2: (lead)  Standard

Sleutel:
* - palm mute
/ - slide op
\ - slide af
# - whammy bar
~ - let ring
h - hammer on
b - bend
r - release
p - pull-off
< - Pick slide

Notas:

   -Ek is nie dood seker oor die solo se bar 5 en 6 nie

   -Die laaste 2 bars van die solo dink ek klink beter as dit gesweep word

   -Nie dood seker oor Guitar 2 se Riff 4 nie

   -Enjoy!
_____________________________________________________________________________________________

Intro:
(00:00 - 00:11)
_____________________________________________________________________________________________

e|-------------------------------------|
B|-------------------------------------|
G|-------------------------------------|
D|-5-5-5-5--5-5-5-5--6-6-6-6--6-6-6-6--| X3
A|-5-5-5-5--5-5-5-5--6-6-6-6--6-6-6-6--|
E|-3-3-3-3--3-3-3-3--4-4-4-4--4-4-4-4--|
   * * * *  * * * *  * * * *  * * * *

e|-------------------------------------|
B|-------------------------------------|
G|-8-8-8-8--8-8-8-8--------------------|
D|-8-8-8-8--8-8-8-8--8-8-8-8--8-8-8-8--|
A|-6-6-6-6--6-6-6-6--8-8-8-8--8-8-8-8--|
E|-------------------6-6-6-6--6-6-6-6--|

_____________________________________________________________________________________________

Riff 1:
(00:11 - 00:22)
_____________________________________________________________________________________________

Guitar 1:

e|----------------------------|
B|----------------------------|
G|----------------------------|
D|----------------------------| X2
A|---------3-1----------------|
E|-3-3-4-3-----3-4-4-4-4-4-6--|

Guitar 2:

e|----------------------------|
B|----------------------------|
G|---------8-7~---------------|
D|-5-5-6-5--------------------| X2
A|----------------------------|
E|----------------------------|



Guitar 1:

e|------------------------------------|
B|------------------------------------|
G|------------------------------------|
D|------------------------------------|
A|---------3-1----/8-8-8--6-6-6-6-----|
E|-3-3-4-3-----3----------------------|

Guitar 2:

e|----------------------------|
B|----------------------------|
G|---------8-7~---------------|
D|-5-5-6-5--------------------|
A|----------------------------|
E|----------------------------|



Guitar 1:

e|-------------------------------|
B|-------------------------------|
G|-13-13-13-13--13-13-13-13--12--|
D|-13-13-13-13--13-13-13-13--12--|
A|-11-11-11-11--11-11-11-11--10--|
E|-------------------------------|


e|----7---------7--------7--------------|
B|-/9----9--9------9--9------8--8b9--8--|
G|------------------------------7b8--7--|
D|--------------------------------------|
A|--------------------------------------|
E|--------------------------------------|

_____________________________________________________________________________________________

Riff 2:
(00:22 - 00:34)
_____________________________________________________________________________________________

Bass

G|-------------------------------------------------------|
D|-------------------------------------------------------|
A|-------------------------------------------------1-1---|
E|-3--3-3-3-3/1-1-1-1\6-5-1--3-3--3-3-3--3-1-1---1-------|

______________________________________________________________________________________________

Riff 3:
(00:34 - 00:46)
_____________________________________________________________________________________________


e|--------------------------------------------|
B|-8-8-8-8--8-8-8-8---8-8-8-8--8-8-8----------|
G|-7-7-7-7--7-7-7-7---7-7-7-7--7-7-7----------|
D|-5-5-5-5--5-5-5-5---5-5-5-5--5-5-5----------|
A|--------------------------------------------|
E|--------------------------------------------|
   * * * *  * * * *   * * * *  * * *

e|----------------------------------------|
B|-6--6-6-6-6--6-6-6-6--4-4-4-4--6-6-6-6--|
G|-5--5-5-5-5--5-5-5-5--3-3-3-3--5-5-5-5--|
D|-3--3-3-3-3--3-3-3-3--1-1-1-1--3-3-3-3--|
A|----------------------------------------|
E|----------------------------------------|
      * * * *  * * * *  * * * *  * * * *

e|----------------------------------------|
B|-8--8-8-8-8--8-8-8-8---8-8-8-8--8-8-8---|
G|-7--7-7-7-7--7-7-7-7---7-7-7-7--7-7-7---|
D|-5--5-5-5-5--5-5-5-5---5-5-5-5--5-5-5---|
A|----------------------------------------|
E|----------------------------------------|
      * * * *  * * * *   * * *   

e|------------------------------------------|
B|------------------------------------------|
G|------------------------------------------|
D|-8-8-8--8-8-8-----8-/10-10-10--10-10-10---|
A|-8-8-8--8-8-8-----8-/10-10-10--10-10-10---|
E|-6-6-6--6-6-6-----6-/8--8--8---8--8--8----|

_____________________________________________________________________________________________

Chorus:
(00:46 - 01:09)
_____________________________________________________________________________________________

e|-------------------------------------|
B|-------------------------------------|
G|-------------------------------------|
D|-5-5-5-5--5-5-5-5--6-6-6-6--6-6-6-6--| X3
A|-5-5-5-5--5-5-5-5--6-6-6-6--6-6-6-6--|
E|-3-3-3-3--3-3-3-3--4-4-4-4--4-4-4-4--|
    

e|-------------------------------------|
B|-------------------------------------|
G|-8-8-8-8--8-8-8-8--------------------|
D|-8-8-8-8--8-8-8-8--8-8-8-8--8-8-8-8--|
A|-6-6-6-6--6-6-6-6--8-8-8-8--8-8-8-8--|
E|-------------------6-6-6-6--6-6-6-6--|


e|-------------------------------------|
B|-------------------------------------|
G|-------------------------------------|
D|-5-5-5-5--5-5-5-5--6-6-6-6--6-6-6-6--| X3
A|-5-5-5-5--5-5-5-5--6-6-6-6--6-6-6-6--|
E|-3-3-3-3--3-3-3-3--4-4-4-4--4-4-4-4--|
   * * * *  * * * *  * * * *  * * * *

e|-------------------------------------|
B|-------------------------------------|
G|-8-8-8-8--8-8-8-8--------------------|
D|-8-8-8-8--8-8-8-8--8-8-8-8--8-8-8-8--|
A|-6-6-6-6--6-6-6-6--8-8-8-8--8-8-8-8--|
E|-------------------6-6-6-6--6-6-6-6--|

_____________________________________________________________________________________________

Riff 1:

_____________________________________________________________________________________________

Guitar 1:

e|----------------------------|
B|----------------------------|
G|----------------------------|
D|----------------------------| X2
A|---------3-1----------------|
E|-3-3-4-3-----3-4-4-4-4-4-6--|

Guitar 2:

e|----------------------------|
B|----------------------------|
G|---------8-7~---------------|
D|-5-5-6-5--------------------| X2
A|----------------------------|
E|----------------------------|



Guitar 1:

e|------------------------------------|
B|------------------------------------|
G|------------------------------------|
D|------------------------------------|
A|---------3-1----/8-8-8--6-6-6-6-----|
E|-3-3-4-3-----3----------------------|

Guitar 2:

e|----------------------------|
B|----------------------------|
G|---------8-7~---------------|
D|-5-5-6-5--------------------|
A|----------------------------|
E|----------------------------|



Guitar 1:

e|-------------------------------|
B|-------------------------------|
G|-13-13-13-13--13-13-13-13--12--|
D|-13-13-13-13--13-13-13-13--12--|
A|-11-11-11-11--11-11-11-11--10--|
E|-------------------------------|


e|----7---------7--------7--------------|
B|-/9----9--9------9--9------8--8b9--8--|
G|------------------------------7b8--7--|
D|--------------------------------------|
A|--------------------------------------|
E|--------------------------------------|

_____________________________________________________________________________________________

Boring Bass riff wat ek nie gan tab nie:
(01:21 - 01:35)
_____________________________________________________________________________________________

Riff 4:
(01:35 - 01:47)
_____________________________________________________________________________________________

Guitar 1:

e|--------------------------------------------|
B|-8-8-8-8--8-8-8-8---8-8-8-8--8-8-8----------|
G|-7-7-7-7--7-7-7-7---7-7-7-7--7-7-7----------|
D|-5-5-5-5--5-5-5-5---5-5-5-5--5-5-5----------|
A|--------------------------------------------|
E|--------------------------------------------|
   * * * *  * * * *   * * * *  * * *

e|----------------------------------------|
B|-6--6-6-6-6--6-6-6-6--4-4-4-4--6-6-6-6--|
G|-5--5-5-5-5--5-5-5-5--3-3-3-3--5-5-5-5--|
D|-3--3-3-3-3--3-3-3-3--1-1-1-1--3-3-3-3--|
A|----------------------------------------|
E|----------------------------------------|
      * * * *  * * * *  * * * *  * * * *

e|----------------------------------------|
B|-8--8-8-8-8--8-8-8-8---8-8-8-8--8-8-8---|
G|-7--7-7-7-7--7-7-7-7---7-7-7-7--7-7-7---|
D|-5--5-5-5-5--5-5-5-5---5-5-5-5--5-5-5---|
A|----------------------------------------|
E|----------------------------------------|
      * * * *  * * * *   * * *   

e|------------------------------------------|
B|------------------------------------------|
G|------------------------------------------|
D|-8-8-8--8-8-8-----8-/10-10-10--10-10-10---|
A|-8-8-8--8-8-8-----8-/10-10-10--10-10-10---|
E|-6-6-6--6-6-6-----6-/8--8--8---8--8--8----|


Guitar 2:

e|------------------------------------|
B|-8----------------------------------|
G|---7-7-7--7-7-7---7-7-7-7-7--8-7----|
D|------------------------------------|
A|------------------------------------|
E|------------------------------------|
            * *     * * * * *
e|------------------------------------|
B|-6----------------------------------|
G|---5-5-5--5-5-5---5-5-5-5-5--5-5----|
D|------------------------------------|
A|------------------------------------|
E|------------------------------------|
            * *     * * * * *   

e|------------------------------------|
B|-8----------------------------------|
G|---7-7-7--7-7-7---7-7-7--7-7-7------|
D|------------------------------------|
A|------------------------------------|
E|------------------------------------|
            * *     * *    * *

______________________________________________________________________________________________

Stilte:

(01:47 - 1:49)
_____________________________________________________________________________________________



_____________________________________________________________________________________________

Chorus:
(01:49 - 01:58)
_____________________________________________________________________________________________


e|-------------------|
B|-------------------|
G|-------------------|
D|-6-6-6-6--6-6-6-6--|
A|-6-6-6-6--6-6-6-6--|
E|-4-4-4-4--4-4-4-4--|

e|-------------------------------------|
B|-------------------------------------|
G|-------------------------------------|
D|-5-5-5-5--5-5-5-5--6-6-6-6--6-6-6-6--| X2
A|-5-5-5-5--5-5-5-5--6-6-6-6--6-6-6-6--|
E|-3-3-3-3--3-3-3-3--4-4-4-4--4-4-4-4--|
    

e|-------------------------------------|
B|-------------------------------------|
G|-8-8-8-8--8-8-8-8--------------------|
D|-8-8-8-8--8-8-8-8--8-8-8-8--8-8-8-8--|
A|-6-6-6-6--6-6-6-6--8-8-8-8--8-8-8-8--|
E|-------------------6-6-6-6--6-6-6-6--|

_____________________________________________________________________________________________
Solo:
(01:58 - 02:22)
_____________________________________________________________________________________________

Guitar 1:

e|-------------------------------------|
B|-------------------------------------|
G|-------------------------------------|
D|-5-5-5-5--5-5-5-5--6-6-6-6--6-6-6-6--| X3
A|-5-5-5-5--5-5-5-5--6-6-6-6--6-6-6-6--|
E|-3-3-3-3--3-3-3-3--4-4-4-4--4-4-4-4--|
    

e|-------------------------------------|
B|-------------------------------------|
G|-8-8-8-8--8-8-8-8--------------------|
D|-8-8-8-8--8-8-8-8--8-8-8-8--8-8-8-8--|
A|-6-6-6-6--6-6-6-6--8-8-8-8--8-8-8-8--|
E|-------------------6-6-6-6--6-6-6-6--|

e|----------------------------|
B|----------------------------|
G|----------------------------|
D|----------------------------| X2
A|---------3-1----------------|
E|-3-3-4-3-----3-4-4-4-4-4-6--|

e|------------------------------------|
B|------------------------------------|
G|----------------10--10--10--8-8-8---|
D|----------------10--10--10--8-8-8---|
A|---------3-1----/8--8---8---6-6-6---|
E|-3-3-4-3-----3----------------------|

e|-------------------------------|
B|-------------------------------|
G|-13-13-13-13--13-13-13-13--12--|
D|-13-13-13-13--13-13-13-13--12--|
A|-11-11-11-11--11-11-11-11--10--|
E|-------------------------------|



Guitar 2:

e|------------------------13-15-13----------------------------------|
B|--------/15~---13-15-16----------16-15-13--15~---13b15r13p11-13~--|
G|------------------------------------------------------------------|
D|------------------------------------------------------------------|
A|------------------------------------------------------------------|
E|-15\--------------------------------------------------------------|

e|-----10-11p10----10h11p10----10-11p10----10h11p10----10-11p10----10h11p10-----|
B|-/13----------13----------13----------13----------13----------13----------13--|
G|------------------------------------------------------------------------------|
D|------------------------------------------------------------------------------|
A|------------------------------------------------------------------------------|
E|------------------------------------------------------------------------------|

e|----------10-------------10---------------------------|
B|-11-13b15----13p11-13b15----13p11-13b15~--15r13p11-13-|
G|------------------------------------------------------|
D|------------------------------------------------------|
A|------------------------------------------------------|
E|------------------------------------------------------|

e|----------------------------------------------------------------<<<<<<<<<<<<<<----|
B|----10--11----11/10----10-8---8/6---6/4p3-----------------------<<<<<<<<<<<<<<----|
G|-12--------12-------10------7-----5-------5p3-5b7r5p3-----5b7---------------------|
D|----------------------------------------------------------------------------------|
A|----------------------------------------------------------------------------------|
E|----------------------------------------------------------------------------------|


e|------3---------------------------|
B|--6b8---6-3-----------------------|
G|------------5-5b7r5p3--5b7~-------|
D|----------------------------------|
A|----------------------------------|
E|----------------------------------|


e|-13----------15----------13----------15----------13----------13---------13---------13----|
B|----15----------15----------15----------15----------15----------15---------15---------15-|
G|-------17p15------17p15--------17p15-------17p15-------17p15-------17p15------17p15------|
D|-----------------------------------------------------------------------------------------|
A|-----------------------------------------------------------------------------------------|
E|-----------------------------------------------------------------------------------------|

e|--18----------20----------18----------20------------------------------------|
B|-----20p18-------20p18-------20p18-------20p18-----18b20r18--18b20~----####-|
G|-----------19----------19----------19----------19---------------------------|
D|----------------------------------------------------------------------------|
A|----------------------------------------------------------------------------|
E|----------------------------------------------------------------------------|

_____________________________________________________________________________________________

Post Solo:
(02:22 - 02:54)
_____________________________________________________________________________________________

e|----------------------------|
B|----------------------------|
G|----------------------------|
D|----------------------------| X6
A|----------------------------|
E|-3---3-4-4-3-4-6-3-3--------|

e|----------------------------|
B|----------------------------|
G|----------------------------|
D|----------------------------| x2
A|---------------------5------|
E|-3---3-4-4-3-4-6-3-3---3----|

e|----------------------------|
B|----------------------------|
G|----------------------------|
D|----------------------------|
A|---------------------5---5--|
E|-3---3-4-4-3-4-6-3-3---3--3-|

e|----------------------------|
B|----------------------------|
G|----------------------------|
D|----------------------------|
A|---------------------5------|
E|-3---3-4-4-3-4-6-3-3---3----|

e|------------------|
B|------------------|
G|------------------|
D|------------------|
A|------------------|
E|-3---3-4-4-3-4-6--|

_____________________________________________________________________________________________

Chorus:
(02:54 - 03:18)
_____________________________________________________________________________________________

Guitar 1:
                                       ________
e|-------------------------------------|       |
B|-------------------------------------|       |
G|-------------------------------------|       |
D|-5-5-5-5--5-5-5-5--6-6-6-6--6-6-6-6--| X3    |
A|-5-5-5-5--5-5-5-5--6-6-6-6--6-6-6-6--|       |
E|-3-3-3-3--3-3-3-3--4-4-4-4--4-4-4-4--|       |
                                               |- x2
e|-------------------------------------|       |
B|-------------------------------------|       |
G|-8-8-8-8--8-8-8-8--------------------|       |
D|-8-8-8-8--8-8-8-8--8-8-8-8--8-8-8-8--|       |
A|-6-6-6-6--6-6-6-6--8-8-8-8--8-8-8-8--|       |
E|-------------------6-6-6-6--6-6-6-6--|_______|
                                        
Guitar 2:
                                      ________
e|------------------------------------|       |  
B|------------------------------------|       |  
G|------------------------------------|       |  
D|------------------6-6-6-6--6-6-6-6--| X3    |   
A|-----5---5--------6-6-6-6--6-6-6-6--|       |  
E|-3-3---3---3-3----4-4-4-4--4-4-4-4--|       |
                                              |- x2
e|------------------------------------|       |
B|------------------------------------|       |
G|-8-8-8-8--8-8-8-8-------------------|       |
D|-8-8-8-8--8-8-8-8--8-8-8-8--8-8-8-8-|       |
A|-6-6-6-6--6-6-6-6--8-8-8-8--8-8-8-8-|       |
E|-------------------6-6-6-6--6-6-6-6-|_______|
_____________________________________________________________________________________________

Outro:
(03:18 - 03:20)
_____________________________________________________________________________________________

Guitar 1:

e|----------------------------|
B|----------------------------|
G|----------------------------|
D|----------------------------|
A|---------3-1----------------|
E|-3-3-4-3-----3-4-4-4-4-4----|

Guitar 2:

e|----------------------------|
B|----------------------------|
G|---------8-7~---------------|
D|-5-5-6-5--------------------|
A|----------------------------|
E|----------------------------|

---------------------------
This file passed through:
       Absolute Tabs
   http://www.tabs.co.za
---------------------------