Guitar tablature for She Always Gets What She Wants by Prime Circle (tabbed by kunuk)
#----------------------------------PLEASE NOTE---------------------------------#
#This file is the author's own work and represents their interpretation of the #
#song. You may only use this file for private study, scholarship, or research. #
#------------------------------------------------------------------------------##

She Always Gets What She Wants – Prime Circle
Album:  All or Nothing



This song can be played as hard or soft as you’d like...and still
sound good. I’ve offered up both open chords and power chords
(“5” chords) so you can mix it up a bit.

Here are the chords used in the song for quick reference:
       Am      A5      D       D5      Em      E5      G      G5        
e:-----0---------------3---------------0---------------3--------------
B:-----1---------------3---------------0---------------0--------------
G:-----2---------------2-------7-------0-------9-------0--------------
D:-----2-------7-------0-------7-------2-------9-------0------5-------
A:-----0-------7---------------5-------2-------7-------2------5-------
E:-----0-------5-----------------------0---------------3------3-------

Have fun! Please let me know if there any changes/suggestions you have
to make the tab better,
Your Friendly Neighbourhood Kunuk – kunuk@rocketmail.com

======================================================================

INTRO:
G.....D.....Em.....Am.....D.....


VERSE 1:
G         D                  Em               Am              D      
She comes around like a wild fire, and like a moth drawn to a flame
G         D                Em         Am     D      
I’m on my way to being burned up once again.
G        D                 Em                Am       D      
And I’ve been through this before, a hundred times or more
G       D               Em              Am      D      
But she keeps me coming back, what am I waiting for.


CHORUS:    
Guitar 1...                     (Repeat throughout chorus)
e:-15-----15----17----17-----|-15-----15----17----17-----|
B:-----15----15----15-----15-|-----15----15----15----15--|
G:---------------------------|---------------------------|
D:---------------------------|---------------------------|
A:---------------------------|---------------------------|
E:---------------------------|---------------------------|

Guitar 2...
G          D             Em        Am      D
She always gets what she wants

G          D             Em        Am      D
She always gets what she needs and more
G          D              Em              Am      D
She always counts out the chords that I’m playing.
G          D             Em              Am      D
She always moves to the rhythm she is making. She is.


VERSE 2:
G                D                Em                     
She walks to the sound of her own drum
                 Am                   D      
One minute she’s there the next she’s gone
G       D               Em        Am              D      
And I’m left to pick up pieces of myself to carry on.
G        D                 Em         Am              D      
And I’ve been through this before, a hundred times or more
G       D               Em               Am      D      
But she keeps me coming back.  What am I waiting for?


CHORUS:
Guitar 1...                     (Repeat throughout chorus)
e:-15-----15----17----17-----|-15-----15----17----17-----|
B:-----15----15----15-----15-|-----15----15----15----15--|
G:---------------------------|---------------------------|
D:---------------------------|---------------------------|
A:---------------------------|---------------------------|
E:---------------------------|---------------------------|

Guitar 2...
G          D             Em        Am      D
She always gets what she wants
G          D             Em        Am      D
She always gets what she needs and more
G          D              Em              Am      D
She always counts out the chords that I’m playing.
G          D             Em              Am      D
She always moves to the rhythm she is making. She is.
G
She is my home, she is my home
G        D                 Em         Am              D      
And I’ve been through this before, a hundred times or more
G       D               Em               Am      D      
But she keeps me coming back.  What am I waiting for?

======================================================================

---------------------------
This file passed through:
       Absolute Tabs
   http://www.tabs.co.za
---------------------------