Bass tablature for The Curse of the Gypsy's Gold by The Cheap Bad Habits (tabbed by Jed)
#----------------------------------PLEASE NOTE---------------------------------#
#This file is the author's own work and represents their interpretation of the #
#song. You may only use this file for private study, scholarship, or research. #
#------------------------------------------------------------------------------##

THE CURSE OF THE GYPSY’S GOLD

http://soundcloud.com/the-cheap-bad-habits/the-cheap-bad-habits-the-curse

INTRO
G-------------------------------------------------------------------------
D-------------------------------------------------------------------------
A-------------------------------------------------------------------------
E--5-5----5-5----5-5-----5-5----5-5---------------------------------

VERSE
G----------------------------------------------------------------------------------------------------------------------------
D----------------------------------------------------------------------------------------------------------------------------
A----------------------------------------------------------------------------------------------------------------------------
E—5-5-5-5-5-5-5-3-3-3-5-5-5-5-5-5-5-3-3-3-5-5-5-5-5-5-5-3-3-3-5-5-5-5-5-5-5------------------------

G----------------------------------------------------------------------------------------------------------------------------
D----------------------------------------------------------------------------------------------------------------------------
A—3-3-3-5-5-5-5-5-5-5-3-3-3-5-5-5-5-5-5-5---------------------------------------------------------------------
E--------------------------------------------------------3-3-3-5-5-5-5-5-5-5-3-3-3-3-3-3-5-5-5-5-5-5-5-3-3-3-


CHORUS
G-------------------------------------------------------------------------
D-------------------------------------------------------------------------
A-------------------------------------------------------------------------
E--5-5----5-5----5-5-----5-5----5-5---------------------------------

BRIDGE
G-------------------------------------------------------------------------
D-------------------------------------------------------------------------
A-------------------------------------------------------------------------
E—5--5-5-5-5-5-5-5-3----------------------------------------------- X10

G----------------------------------------------------------------------------------
D----------------------------------------------------------------------------------
A----------------------------------------------------------------------------------
E--5-5--5--5-5--5--5-5--5--5-5--3----5-5--5--5-5--5--5-5--5--5-5--3-

G----------------------------------------------------------------------------------
D----------------------------------------------------------------------------------
A----------------------------------------------------------------------------------
E--5-5--5--5-5--5--5-5--5--5-5--3----5-5--5--5-5--5--5-5--5--5-5--3-

SONG STRUCTURE
• INTRO
• VERSE
• CHORUS
• VERSE
• CHORUS

MAIN RIFF (FULL TAB)
G-----------------------5-------------------------------------------
D------------------5-7---7-5-7-----------------------------------
A--------5-(h)-7----------------------------7-5----5-7-5-------
E--5--5------------------------------5--5--------8---------8-5--- X2

G-------------------------------------------7-(p)-5----5-----------------------------
D-------------------5-7------------5-7--------------7----7--5--7-(p)-5—5--5---
A--------5-(h)-7--------5-(h)7------------------------------------------7---------
E--5--5---------------------------------------------------------------------------------

G-------------------------------------------------------------------------
D-------------------------------------------------------------------------
A--7-(p)-5----5-(h)-7-5----------------------------------------------
E------------8---------------8-5-3-5-----------------------------------


LYRICS

The Curse of the Gypsy’s Gold
I’ll tell you everything about the gypsy caravan
That rode into my town, turned my life upside down
Since boyhood I was told about the curse of the gypsy’s gold
A thrill ran down my spine, that night I’d make their treasure mine

And damn the curse of the gypsy’s gold!
I would take all that I could hold
And carry it off into the night
And nobody would catch a sight

I am the blacksmith’s son, when my day’s work was done
Took the trail to the edge of town, where the gypsy camp was found
I heard a tambourine, no one seemed to notice me
I ducked my head and ran into the gypsy caravan

And damn the curse of the gypsy’s gold!
I felt afraid, no longer bold
But I was a man, no longer a boy
I filled my pockets with golden coins

And as I ran away I thought I heard somebody say,
“Come back here you greedy swine, I know you’ve taken what is mine!”

As I began to run the ground before me spun
I felt the gold was gone, the gypsy’s curse begun
As I began to change I reached a hand up to my face
So shocked I had to shout, I felt a piglet’s snout

I tried to steal the gypsy’s gold
In return I lost my nose
Instead I have this piggy snout
To remind me how my greed won out

---------------------------
This file passed through:
       Absolute Tabs
   http://www.tabs.co.za
---------------------------