Guitar tablature for Suicide of the soul by My Shade
#----------------------------------PLEASE NOTE---------------------------------#
#This file is the author's own work and represents their interpretation of the #
#song. You may only use this file for private study, scholarship, or research. #
#------------------------------------------------------------------------------##


Artist:  My Shade
Song:    Suicide Of The Soul
Album:   Bedtime Musick
Tuning:  Drop B


Intro Riff - play 2 times

C#|-11-12---12-13---11-12---12-13---11-12-13---| 
G#|--------------------------------------------|
E |--------------------------------------------|
B |--------------------------------------------|
F#|--------------------------------------------|
B |--------------------------------------------|


Main Riff

C#|---------------------------------| 
G#|---------------------------------|
E |---------------------------------|
B |-1-2---2-3---1-2---2-3---1-2-3---|
F#|-1-2---2-3---1-2---2-3---1-2-3---|
B |-1-2---2-3---1-2---2-3---1-2-3---|

C#|---------------------------------| 
G#|---------------------------------|
E |---------------------------------|
B |-1-2---2-3---1-2---2-3---1-2-3---|
F#|-1-2---2-3---1-2---2-3---1-2-3---|
B |-1-2---2-3---1-2---2-3---1-2-3---|

C#|---------------------------------| 
G#|---------------------------------|
E |---------------------------------|
B |-1-2---2-3---1-2---2-3---1-2-3---|
F#|-1-2---2-3---1-2---2-3---1-2-3---|
B |-1-2---2-3---1-2---2-3---1-2-3---|

C#|---------------------------------| 
G#|---------------------------------|
E |---------------------------------|
B |-1-2---2-3---1-2---2-3---6-6-6---|
F#|-1-2---2-3---1-2---2-3---6-6-6---|
B |-1-2---2-3---1-2---2-3---6-6-6---|


Pause


Main Riff


Verse 1 - play 4 times
        
C#|--------------------------------------------| 
G#|--------------------------------------------|
E |--------------------------------------------|
B |-7------8------7----3-3-3-2-2-2-1-1---------|
F#|-5------5------5----3-3-3-2-2-2-1-1---------|
B |-5------5------5----3-3-3-2-2-2-1-1---------|


Intro Riff


Main Riff


Verse 2 - play 4 times
        
C#|--------------------------------------------| 
G#|--------------------------------------------|
E |--------------------------------------------|  
B |-0--12--13--8--------0--12--13--8--6--------|
F#|-0--12--13--8--------0--12--13--8--6--------|
B |-0--12--13--8--------0--12--13--8--6--------|


Intro Riff


Main Riff - play 2 times


Fill

C#|---------------------------------| 
G#|---------------------------------|
E |---------------------------------|
B |-6-------------------------------|
F#|-6-------------------------------|
B |-6-----------------6-5-0-3-5-0-3-|


Bridge 1 - palm mute - play 4 times

C#|---------------------------------| 
G#|---------------------------------|
E |---------------------------------|
B |-0--0---0-3---0--0---0-5--6--1---|
F#|-0--0---0-3---0--0---0-5--6--1---|
B |-0--0---0-3---0--0---0-5--6--1---|


Bridge 1 - normal - play 4 times

C#|---------------------------------| 
G#|---------------------------------|
E |---------------------------------|
B |-0--0---0-3---0--0---0-5--6--1---|
F#|-0--0---0-3---0--0---0-5--6--1---|
B |-0--0---0-3---0--0---0-5--6--1---|


Bridge 2 - play 4 times

C#|---------------------------------| 
G#|-13------12------13------12------|
E |-13------13------13------13------|
B |---------------------------------|
F#|---------------------------------|
B |---------------------------------|


Bass plays intro


Main riff - play 2 times




---------------------------
This file passed through:
       Absolute Tabs
   http://www.tabs.co.za
---------------------------