Guitar tablature for All That Is (A Letter To You) by Downfall (tabbed by Nevay)
#----------------------------------PLEASE NOTE---------------------------------#
#This file is the author's own work and represents their interpretation of the #
#song. You may only use this file for private study, scholarship, or research. #
#------------------------------------------------------------------------------##

INTRO\VERSE (clean) x2
2|---3p2---2p0---0---3p2---2p0---0---3p2---2p0---0---3p2---2p0---0-|
3|-----------------------------------------------------------------|
4|-----------------------------------------------------------------|
5|-2-----2-----2---2-----2-----2---0-----0-----0---0-----0-----0---| x4

CHORUS (dist)
3|-------4--7-|    |------|
4|-5--4--4--7-|    |-5--4-|
5|-5--4--2--5-|    |-5--4-|
6|-5--4-----0-| x2 |-5--4-|

VERSE (clean)
2|---3p2---2p0---0---3p2---2p0---0---3p2---2p0---0---3p2---2p0---0-|
3|-----------------------------------------------------------------|
4|-----------------------------------------------------------------|
5|-2-----2-----2---2-----2-----2---0-----0-----0---0-----0-----0---| x5

CHORUS (dist)
3|-------4--7-|    |------|
4|-5--4--4--7-|    |-5--4-|
5|-5--4--2--5-|    |-5--4-|
6|-5--4-----0-| x2 |-5--4-|

                  4|---9-11-11/12-11-9-11------
                  5|----------------------10br-

3|----------9-7-6-----|
4|-8-9-9/10-------9-8-|

BRIDGE x3
3|-4--7-----------|
4|-4--7--2--5-5p4-|
5|-2--5--2--5-5p4-|
6|----0--2--5-5p4-|

SOLO 2 (for Bridge)
2|---------------8--7--5--8-7---8-7---8-7---8-7---
3|---4-6-7-6-7-9--------------7-----4-----7-----4-

  ---------------------------------------------------------------|
  7br-6--66-7br-6-7h9p7-7p6--7br6--7h9p7-7p6--4--6br (let ring) -|
  ---------------------------------------------------------------|
  ---------------------------------------------------------------|

VERSE (clean) x2
2|---3p2---2p0---0---3p2---2p0---0---3p2---2p0---0---3p2---2p0---0-|
3|-----------------------------------------------------------------|
4|-----------------------------------------------------------------|
5|-2-----2-----2---2-----2-----2---0-----0-----0---0-----0-----0---| x5

--(small pause for strings)

CHORUS (dist)
3|-------4--7---------|
4|-5--4--4--7--5--4---|
5|-5--4--2--5--5--4---|
6|-5--4-----0--5--4---|

SOLO 2 gt2 (chorus)
2|-------------8--7--5--8-7---8-7---8-7---8-7----------------------7-5----8-7-
3|-4-6-7-6-7-9--------------7-----4-----7-----4-7---7h9-6---6h7-4------4------

------------------|
-4--6--7--6--7--9-|

BRIDGE
3|-4--7-----------|
4|-4--7--2--5-5p4-|
5|-2--5--2--5-5p4-|
6|----0--2--5-5p4-|

SOLO 3 (for last Bridge)
1|-15--14--12--15--14--12--15--14--12--15-14----15-14----15-14----15-14----
2|-------------------------------------------15-------12-------15-------12-
3|-------------------------------------------------------------------------

3|-4--7-----------4--          --|
4|-4--7--2--5--4--4- (let ring) -|
5|-2--5--2--5--4--2--          --|
6|----0--2--5--4-----------------|

  ------------------------------------15-14-------------14-12-----------------------|
  -15--14--14-14--15--14--15h17-15p14-------15h17-15p14---------15\14br----12----12-|
  ----------------------------------------------------------------------------------|

---------------------------
This file passed through:
       Absolute Tabs
   http://www.tabs.co.za
---------------------------