Guitar tablature for Toe dit ek en jy was by Klopjag
#----------------------------------PLEASE NOTE---------------------------------#
#This file is the author's own work and represents their interpretation of the #
#song. You may only use this file for private study, scholarship, or research. #
#------------------------------------------------------------------------------##


ARTIST: KLOPJAG
SONG: TOE DIT EK EN JY WAS
ALBUM: 13/02
Tabbed by: Renier Henning
Comment:for best view turn on word wrap and maximize the window.


Standard tuning with a capo on 5.

Intro
   C          C                     Am           Am
|-----------|------------0-------|-------------|---------------------------|
|----0h1-1~ |----1------------1--|-----0h1-1~ -|---------------------------|
|-----------|------0-0------0----|---2---------|-------------2-------------|
|-----------|----------2---------|-------------|---2-2-2-2-2---2-2-2-2-2-0-|
|-3~ -------|-3------------------|-0-----------|-0-------------------------|
|-----------|--------------------|-------------|---------------------------|

  G                  Fmaj7                C
|------3H5-5p3p1p0-|-------------3------|----------|
|------------------|-----1-1---------1--|----3-1~ -|
|---0--------------|---2------0-------0-|----------|
|------------------|-3--------3---------|----------|
|------------------|--------------------|-3~ ------|
|-3~ --------------|--------------------|----------|

Verse
(For the verse I use the same chord progression but with a different picking pattern)

Kranse in die Boland
die reuk van fynbos langs die see
en kampvure by Buffelsbaai            
weergalm jou naam

Verbasing in o�
die fotos daarna
en name wat ek vergeet het
trek lyne van jou gesig

Chorus
(listen to the song for the strumming)
|---------------|--------------|-----------|
|---------------|--------------|-----------|
|---------5---2-|---------5--5-|---------5-|
|-3---5---5---2-|-3---5---5--5-|-3---5---5-|
|-3---5---3---0-|-3---5---3--3-|-3---5---3-|
|-1---3---------|-1---3--------|-1---3-----|

Maar nou's ek gatvol
ek voel naak en verdwaald
en ten spyte raak ek verslaaf
aan kakpraat en fotos neem
saam met mense
wat ek nooit weer gaan sien nie

Ek mis pretoria
my bakkie met sy gearlock
wat nooit wil oop
en sy ligte altyd op bright
ek en Jacques se smokebreaks
by die vensters voor hof 6G
onder plakkate wat beweer
ons bevind ons in 'n rookvrye gebied
ingevolge artikel sus en so
van wet huffels en suffels

Last verse(not sure)
   C          C                     Am           
|-----------|------------------|---------0---|--------------|
|----0h1-1~ |------0h1---1-3-5-|-----0h1-----|----------0---|
|-----------|----0-----0-------|-------------|------0-----0-|
|-----------|------------------|-------------|----0---0-----|
|-3~ -------|-3----------------|-0-----------|--------------|
|-----------|------------------|-------------|-3------------|

                    
|--------|--------------|
|-1--1---|------3-1~ ---|
|-2--0---|--------------|
|-3--3---|--------------|
|--------|--3~ ---------|
|--------|--------------|

Maar, toe dit ek en jy was
wat hand aan hand
wat hand aan hand
deur die vlooimark stap

------------------------------------------------------------------------------------------------
You can mail me at mclarennar@mweb.co.za for any comments or suggestions. Keep listening local for the best music in the world.


---------------------------
This file passed through:
       Absolute Tabs
   http://www.tabs.co.za
---------------------------