Bass tablature for Fine Again by Seether
#----------------------------------PLEASE NOTE---------------------------------#
#This file is the author's own work and represents their interpretation of the #
#song. You may only use this file for private study, scholarship, or research. #
#------------------------------------------------------------------------------##

================================================================================
Title        : Fine Again
Artist/Group : Seether
Date - Time  : 4/6/2003 - 12:23:28 PM
Created by   : Slickdog
================================================================================
I'm not 100% sure if its drop D but this is how I play it live and its sounds real good.
I know there is a little riff in the chorus I play this and it works for me,,send any
comments or corrections to slickdog@ev1.net

verse:                                    
G-------------------------------------||
D-------------------------------------||
A-------------------------------------||
D---4-4-4---7-7-7---0-0-0---2-2-2-||
                                    
  
chorus:#1                                                    |last time slide
G----------------------------------------|-------------|
D----------------------------------------|-------------|
A------------------5-7p-5\2-2-2----------|-------------|
D---4-4-4---0-0-0----------------2-2-2-2-|---4/--------|
                                                 
  
bridge:                            
G----------------------------------------------------|
D----------------------------------------------------|
A---5-----2-----5-----2-----5-----2-----5-----2------|
D----------------------------------------------------|
                            

       
chorus:                                                        
G----------------------------------------||
D----------------------------------------||
A------------------5-7p-5\2-2-2----------||
D---4-4-4---0-0-0----------------2-2-2-2-||
      



================================================================================
BASS TAB READING NOTES:
NoteType (above the bass line):w=whole, h=half, q=quarter, e=eighth, s=sixteenth
Fingering (below the bass line):1=index, 2=middle, 3=ring, 4=pinkie, 5=thumb
Special Note Symbols:
   h    = hammer-on from previous note
   p    = pull off from previous note
   /or\ = slide up or down to note
   b    = bend note
   S    = slap the note with the right-hand thumb (left hand if left-handed)
   P    = pop the note with the right hand (left hand if left-handed)
   t    = tap the note with the right hand (left hand if left-handed)
   H    = harmonic
   x    = muted note
   r    = a rest
--------------------------------------------------------------------------------
AdiBASS Tablature Creator (HTML) V.1  [p_hadiwijaya@yahoo.com]
Optimized by A-desain >>> http://www.geocities.com/a_desain_id


---------------------------
This file passed through:
       Absolute Tabs
   http://www.tabs.co.za
---------------------------