Guitar tablature for Die Avontuur van 'n Hartbreek by Straatligkinders (tabbed by kunuk)
#----------------------------------PLEASE NOTE---------------------------------#
#This file is the author's own work and represents their interpretation of the #
#song. You may only use this file for private study, scholarship, or research. #
#------------------------------------------------------------------------------##

Die Avontuur van 'n Hartbreek - Straatligkinders
[The Adventure of a Heartbreak]
Album: Bloeisels



For the intro part of this tab: the rhythm guitar plays the chords
above the tabs, and the second guitar plays the tabs.  For the most
part, the rhythms are played as doubles, but if you listen to the song
you should be able to figure it out.

Here are the chords used in the song for quick reference:
        B5     C5     D5     E5     E5    F#5     G5     
e:--------------------------------------------------------
B:--------------------------------------------------------
G:----------------------------------9---------------------
D:------9-----10-----12------2------9------4------5-------
A:------9-----10-----12------2------7------4------5-------
E:------7------8-----10------0-------------2------3-------

Have fun! Please let me know if there any changes/suggestions you have
to make the tab better,
Your Friendly Neighbourhood Kunuk – kunuk@rocketmail.com

======================================================================

INTRO:
-Crank up your FLANGER effects pedal...
e:-----------------|-----------------|-----------------|
B:-----------------|-----------------|-----------------|
G:-----------------|-----------------|-----------------|
D:----15--------14-|----15--------14-|----15--------14-|
A:-15--------15----|-15--------15----|-15--------15----|
E:-----------------|-----------------|-----------------|

  G5               D5    G5    D5
e:---------------|---------------|---------------|---------------|
B:---------------|---------------|---------------|---------------|
G:---------------|---------------|---------------|---------------|
D:-15---14-------|-15---14-------|-15---14-------|-15---14-------|
A:-----------15~-|-----------15~-|-----------15~-|-----------15~-|
E:---------------|---------------|---------------|---------------|

  B5               C5    B5    C5
e:---------------|---------------|---------------|---------------|
B:---------------|---------------|---------------|---------------|
G:---------------|---------------|---------------|---------------|
D:-15---14-------|-15---14-------|-15---14-------|-15---14-------|
A:-----------15~-|-----------15~-|-----------15~-|-----------15~-|
E:---------------|---------------|---------------|---------------|


VERS:
B5       B5
Jou hart klop vinniger
D5               D5
Jou polse sweet, my polse sweet
B5         B5
Asemhaling raak stadiger
D5              D5
Jou hande bewe, my hande bewe

B5      B5
Worstel met my gedagtes
D5                D5
Jy glimlag breed, ek glimlag breed
B5         B5
Wees braaf en wees jouself
D5              D5
Jy het my naam, ek het jou naam


e:---------------------------|
B:---------------------------|
G:---------------------------|
D:-9-9--10-10-10-10-10-10-10-|
A:-9-9--10-10-10-10-10-10-10-|
E:-7-7---8--8--8--8--8--8--8-|


KOOR:
G5              D5
Kom kom kom nou saam
A5           G5                D5
Ons dans oor die sterre en die maan
D5             F#5       G5
Moet net nie so bang wees nie
D5              F#5        G5
Moet net nie so skaam wees nie

G5                D5
Sien sien sien jy my
A5            G5             D5
Ek's besig om oor planete te gly
D5              F#5       G5
Moet net nie so bang wees nie
D5              F#5        G5
Moet net nie so skaam wees nie


VERS:
B5       B5
Tragedie tref ons harte
D5                 D5
Jy soek meer en ek soek minder
B5           B5
Niks is meer dieselfde nie
D5                   D5
Jou polse sweet nie, my polse sweet nie

B5         B5
Is dit nou hoe dit gaan eindig
D5                 D5
Jy's onseker en ek voel seker
B5            B5
Dis nie nodig om spyt te wees nie
D5              D5
Want spyt steel tyd van die avontuur


e:---------------------------|
B:---------------------------|
G:---------------------------|
D:-9-9--10-10-10-10-10-10-10-|
A:-9-9--10-10-10-10-10-10-10-|
E:-7-7---8--8--8--8--8--8--8-|


KOOR: (X2)
G5              D5
Kom kom kom nou saam
A5           G5                D5
Ons dans oor die sterre en die maan
D5             F#5       G5
Moet net nie so bang wees nie
D5              F#5        G5
Moet net nie so skaam wees nie

G5                D5
Sien sien sien jy my
A5            G5             D5
Ek's besig om oor planete te gly
D5              F#5       G5
Moet net nie so bang wees nie
D5              F#5        G5 (B5 the second time)
Moet net nie so skaam wees nie


OUTRO:
e:---------------|---------------|---------------|---------------|
B:---------------|---------------|---------------|---------------|
G:---------------|---------------|---------------|---------------|
D:-15---14-------|-15---14-------|-15---14-------|-15---14-------|
A:-----------15~-|-----------15~-|-----------15~-|-----------15~-|
E:---------------|---------------|---------------|---------------|

e:---------------|---------------|---------------|---------------||
B:---------------|---------------|---------------|---------------||
G:---------------|---------------|---------------|---------------||
D:-15---14-------|-15---14-------|-15---14-------|-15---14-------||
A:-----------15~-|-----------15~-|-----------15~-|-----------15~-||
E:---------------|---------------|---------------|---------------||


======================================================================
Here is an English translation for all of those people out there like
myself, who dig the music, but are new to the language:
======================================================================

VERSE:
Your heart beats faster
Your palms sweat, my palms sweat
Breathing slows down
Your hands tremble, my hands tremble

Struggle with my thoughts
You smile widely, I smile widely
Be brave and be yourself
You know my name, I know your name

CHORUS:
Come come come with me
We will dance across the stars and the moon
Don't be so afraid
Don't be so shy

Do you see see see me
I'm busy gliding over the planets
Don't be so afraid
Don't be so shy

VERSE:
Tragedy befalls our hearts
You want more and I want less
Nothing is the same anymore
Your palms don't sweat, my palms don't sweat

Is this how it's going to end
Your unsure and I feel certain
It's not necessary to feel regretful
Because regrets steal time from the adventure

CHORUS:
Come come come with me
We will dance across the stars and the moon
Don't be so afraid
Don't be so shy

Do you see see see me
I'm busy gliding over the planets
Don't be so afraid
Don't be so shy
======================================================================

---------------------------
This file passed through:
       Absolute Tabs
   http://www.tabs.co.za
---------------------------