Guitar tablature for Love Her by Saron Gas
#----------------------------------PLEASE NOTE---------------------------------#
#This file is the author's own work and represents their interpretation of the #
#song. You may only use this file for private study, scholarship, or research. #
#------------------------------------------------------------------------------##

Artist: Saron Gas
Album: None
  Song: Love Her
Tuning: Standard E
Tabber: Brad

Okay, this is a kick ass song, so in my totally bored state, i decided to tab it out. And in
my bored state i tabbed a couple more of their songs out. WHAT? I WAS BORED

KEY
 X - Palm Mute
      p - pull off
      h - Hammer On
      / - Slide Up

Intro     
|----5----------8----8--8------3---------------|
|----5----------8----8--8------3-----------6p5-|
|----7----------10---10-10-----5---------------|
|----7----------10---10-10-----5-----7--7------|X2
|-5-----0--8----------------3-----0--5--5------|
|----------------------------------------------|
                  X  X

Verse 1 " I Met A Girl, Who Hated The World"
|----5----------8----8--8------3---------------|
|----5----------8----8--8------3-----------6p5-|
|----7----------10---10-10-----5---------------|
|----7----------10---10-10-----5-----7--7------|X8
|-5-----0--8----------------3-----0--5--5------|
|----------------------------------------------|
           X  X

Chorus 1 " You Could Love Her, If You Paid"
|-----------------------------------------------------------------|
|-----------------------------------------------------------------|
|-----------------------------------------------------------------|
|-5-5-5-3-3-3-3-3-5-5-5-8-8-8-8-8-5-5-5-3-3-3-3-3-8-8-8-5-5-5-5-5-|X2
|-5-5-5-3-3-3-3-3-5-5-5-8-8-8-8-8-5-5-5-3-3-3-3-3-8-8-8-5-5-5-5-5-|
|-3-3-3-1-1-1-1-1-3-3-3-6-6-6-6-6-3-3-3-1-1-1-1-1-6-6-6-3-3-3-3-3-|

Interlude
|----5----------8----8--8------3---------------|
|----5----------8----8--8------3-----------6p5-|
|----7----------10---10-10-----5---------------|
|----7----------10---10-10-----5-----7--7------|
|-5-----0--8----------------3-----0--5--5------|
|----------------------------------------------|
              X  X

|----5----------8----8--8------3-------5-6p5---|
|----5----------8----8--8------3---------------|
|----7----------10---10-10-----5---------------|
|----7----------10---10-10-----5-----7---------|
|-5-----0--8----------------3-----0--5---------|
|----------------------------------------------|
           X  X

Verse 2 " Down on her knees, she bled on the floor"
|----5----------8----8--8------3---------------|
|----5----------8----8--8------3-----------6p5-|
|----7----------10---10-10-----5---------------|
|----7----------10---10-10-----5-----7--7------|X8
|-5-----0--8----------------3-----0--5--5------|
|----------------------------------------------|
           X  X

Chorus 2 " You Could Love Her, If You Paid"
|-----------------------------------------------------------------|
|-----------------------------------------------------------------|
|-----------------------------------------------------------------|
|-5-5-5-3-3-3-3-3-5-5-5-8-8-8-8-8-5-5-5-3-3-3-3-3-8-8-8-5-5-5-5-5-|X2
|-5-5-5-3-3-3-3-3-5-5-5-8-8-8-8-8-5-5-5-3-3-3-3-3-8-8-8-5-5-5-5-5-|
|-3-3-3-1-1-1-1-1-3-3-3-6-6-6-6-6-3-3-3-1-1-1-1-1-6-6-6-3-3-3-3-3-|

Solo
|----------8--------------5|--------------8----8---8-5^1/2--5|
|-5h6--6/8----8---5h6p5-3--|-3/5-5h6--6/8----8---8-----------|
|--------------------------|---------------------------------|
|--------------------------|---------------------------------|x2
|--------------------------|---------------------------------|
|--------------------------|---------------------------------|

Verse 3 " She never found out, how much i tried"
|----5----------8----8--8------3-----------5---|
|----5----------8----8--8------3-----------5---|
|----7----------10---10-10-----5-----------7---|
|----7----------10---10-10-----5-----7--7--7---|X4
|-5-----0--8----------------3-----0--5--5------|
|----------------------------------------------|
           X  X

" You could love her" "If You Paid If You Paid"
|--------------------|------------------------------------------------|
|--------------------|------------------------------------------------|
|--------------------|------------------------------------------------|
|--------------------|5-5-5-8-8-8-8-8-5-5-5-3-3-3-3-3-8-8-8-5-5-5-5-5-|
|--------------------|5-5-5-8-8-8-8-8-5-5-5-3-3-3-3-3-8-8-8-5-5-5-5-5-|
|--------------------|3-3-3-6-6-6-6-6-3-3-3-1-1-1-1-1-6-6-6-3-3-3-3-3-|

Chorus 3 " You Could Love Her"
|-----------------------------------------------------------------|
|-----------------------------------------------------------------|
|-----------------------------------------------------------------|
|-5-5-5-3-3-3-3-3-5-5-5-8-8-8-8-8-5-5-5-3-3-3-3-3-8-8-8-5-5-5-5-5-|X2
|-5-5-5-3-3-3-3-3-5-5-5-8-8-8-8-8-5-5-5-3-3-3-3-3-8-8-8-5-5-5-5-5-|
|-3-3-3-1-1-1-1-1-3-3-3-6-6-6-6-6-3-3-3-1-1-1-1-1-6-6-6-3-3-3-3-3-|

|---------------------------------------------------------|
|---------------------------------------------------------|
|---------------------------------------------------------|
|-5-5-5-3-3-3-3-3-5-5-5-8-8-8-8-8-5-5-5-3-3-3-3-3-8-8-8-5-|
|-5-5-5-3-3-3-3-3-5-5-5-8-8-8-8-8-5-5-5-3-3-3-3-3-8-8-8-5-|
|-3-3-3-1-1-1-1-1-3-3-3-6-6-6-6-6-3-3-3-1-1-1-1-1-6-6-6-3-|

Outro
|----5----------8----8--8------3---------------|
|----5----------8----8--8------3-----------6p5-|
|----7----------10---10-10-----5---------------|
|----7----------10---10-10-----5-----7--7------|
|-5-----0--8----------------3-----0--5--5------|
|----------------------------------------------|
           X  X

|----5----------8----8--8------3-----5-|
|----5----------8----8--8------3-----5-|
|----7----------10---10-10-----5-----7-|
|----7----------10---10-10-----5-----7-|
|-5-----0--8----------------3-----0--5-|
|--------------------------------------|
           X  X

Well there you have it, I hope you enjoyed the tab, and if you have any queries, fix-ups,
comments, please send em all to

nagle5000@yahoo.com

Visit www.seether.com and support the guys



Lyrics (OKAY DONT CRAP ALL OVER ME IF THE LYRICS ARE WRONG)

I met a girl, who hated the world
She used her body, to sell her soul
Everytime they'd break her and pay
Tear out her heart and leave her in pain

I never found out how she got by
All of the sadness she kept inside
I never found out how she could lie
With a smile on her face and the scratches she'd hide

You could love her, if you paid
You could have her, everyday
You could love her, if you paid
You could have her, everyday

Now on her knees, she'd bled on the floor
This broken life, she wanted no more
Dead in her eyes and cold to the bone
She opened her eyes and saw she was alone

She never found out, how much i tried
A life lived in lies is a life of denile
She never found out how much i cried
The rope so tight on the night that she died

You could love her, if you paid
You could have her, everyday
You could love her, if you paid
You could have her, everyday

SOLO

She never found out, how much i tried
A life lived in lies is a life of denile
She never found out how much i cried
The rope so tight on the night that she died

You could love her, if you paid
You could have her, everyday
You could love her, if you paid
You could have her, everyday

You could love her, if you paid
You could have her, everyday
You could love her, if you paid
You could have her, everyday


---------------------------
This file passed through:
       Absolute Tabs
   http://www.tabs.co.za
---------------------------