Guitar tablature for Financing Bob by Finkelstiens, The
#----------------------------------PLEASE NOTE---------------------------------#
#This file is the author's own work and represents their interpretation of the #
#song. You may only use this file for private study, scholarship, or research. #
#------------------------------------------------------------------------------##


FINANCING BOB--THE FINKELSTIENS
Album: The dawning of a new error
Tabbed by frikkie jacobs

intro

A  F#  D  E

E--5-4---5-5-4---5-4---5-5-4-----------
B------5-------5-----5-------5---------
G--------------------------------------
D--------------------------------------
A--------------------------------------
E--------------------------------------

E--5-4---5-5-4-2--5-4---4-5-7-5-4------
B------3--------------3-----------5----
G--------------------------------------
D--------------------------------------
A--------------------------------------
E--------------------------------------

verses (the time is here...)

A  F#  D  E

bridge (what the... heck is...)

D  A  F#  E

chorus (i'm not everything you think i am...)

A  F#  D  E

solo

E-5--5h7p5-4-2-----5-4-5-7--5-4------
B--------------2-3-------------------
G--------------------------------------
D--------------------------------------
A--------------------------------------
E--------------------------------------

E--5-4---5-5-4---5-4---5-5-4-----------
B------5-------5-----5-------5---------
G--------------------------------------
D--------------------------------------
A--------------------------------------
E--------------------------------------

E--5-4---5-5-4-2--5-4---4-5-7-5-7-9-10~-
B------3--------------3-----------------
G---------------------------------------
D---------------------------------------
A---------------------------------------
E---------------------------------------


---------------------------
This file passed through:
       Absolute Tabs
   http://www.tabs.co.za
---------------------------