Guitar tablature for Kopskudkinders by Die Tuindwergies (tabbed by G3752)
#----------------------------------PLEASE NOTE---------------------------------#
#This file is the author's own work and represents their interpretation of the #
#song. You may only use this file for private study, scholarship, or research. #
#------------------------------------------------------------------------------##

_______________________________________________________________________________________________

Die Tuindwergies: Kopskudkinders
_______________________________________________________________________________________________

Vir vrae/Koreksies e-mail my by gabriel3752@gmail.com

Volg my op Twitter! @GabrielRoux3752


Guitar 1: Open D maj Tuning (D A D F# A D)  Capo 6

Guitar 2: Open D maj Tuning (D A D F# A D)


_______________________________________________________________________________________________

Rhythm Section: Guitar 1
_______________________________________________________________________________________________
    

Chords Relative to capo

*Nie die actual chords se name nie


    D0  D   A   G   G1  F#  A1
                 
D |-0---4---0---0---0---0------|
A |-0---0---4---2---0---0---0--|
F#|-0---3---3---1---5---5---1--|
D |-0---4---2---0---0---0---2--|
A |-0---0---4---2---x---x---0--|
D |-0---0-----------5---4------|

_______________________________________________________________________________________________

Intro:
_______________________________________________________________________________________________

D       A        G




_______________________________________________________________________________________________

Verse
_______________________________________________________________________________________________

D           A        G
Jy glimlag nou so aandagtig

                      D
want jy het mos gewen

             A           G
maar bly nogsteeds te lafhartig

                D
om te kan erken

    A      G                   D
Jy was al een wat wou deelneem

    A      G
jy was al een

_______________________________________________________________________________________________

Pre Chorus:
_______________________________________________________________________________________________

G1         F#           A1     D0
Mense verander nooit werklik nie

     G1                F#
Dis omstandigheid en menslikheid

      A1                                D0            
wat my forseer om so teen die res te besluit


D |--0---0------0---0---0---0----|
A |--0---0------0---0---0---0----|
F#|--3---3h5p3--3---3---3---3----|   
D |--0---0------5---0---4---4----|
A |--0---0------0---0---0---0----|
D |--0---0------0---0---0---0----|

_______________________________________________________________________________________________

Chorus:
_______________________________________________________________________________________________


D                      A
Ek het al lankal vrede gemaak

                                  G
Ek het deel van al daai kinders geraak

______________________________________________________________________________________________

Verse
_______________________________________________________________________________________________

D             A     G                     D                
Intelligensie is gevaarlik werklik dit is

         A         G                                     D
Veral as jy jouself op ‘n anti-alternatiewe basis Bevind

D           A
jy het die vraagteken

G                  D           A
soveel meer produktief en gemaklik

       G                        D
as jy reg langsaan my moet staan

        A       G                       D
So onophoudelik volgens die stamboom opreg

               A        G                               D
maar tog so bewustelik onseker of is al die voorskrifte reg



D |-0---0---0---0---0----------0---0------0---0---0---0----|
A |-0---0---0---0---0----------0---0------0---0---0---0----|
F#|-3---3---3---3---3----------3---3h5p3--3---3---3---3----|   
D |-0---0---0---0---0----------0---0------5---0---4---4----|
A |-0---0---0---3---0----------0---0------0---0---0---0----|
D |-0---4---0---0---0----------0---0------0---0---0---0----|

_______________________________________________________________________________________________

Chorus:
_______________________________________________________________________________________________


D                      A
Ek het al lankal vrede gemaak

                                  G
Ek het deel van al daai kinders geraak

_______________________________________________________________________________________________

Interlude
_______________________________________________________________________________________________


D A G A D

_______________________________________________________________________________________________

Bridge
_______________________________________________________________________________________________


D                      G
Ek het al lankal vrede gemaak

                                  D
Ek het deel van al daai kinders geraak

                      G
vir wie jy so gemaklik in die verby-stap jou kop voor kan

D
Skud

           G                       D                                  G                     
af al jou wysheid en kom kyk ons ligte skyn soveel helderder in die donker

                          D
as jou betaalde elektrisiteit/Tyd

                G
geld seep en sigarette

                        D
is aan ons kant werklik min

                                       G
maar ons sal nogsteeds jou volk se loflied

                  D               G
meer op noot kan sing

                                 D
Ons moet meer kopskud-kinders bring

_______________________________________________________________________________________________

Post Bridge
_______________________________________________________________________________________________


G1        F#                A           D0         
Ons kan mekaar ‘n bietjie later aan die slaap sing liefling

     G1            F#             A
maar vir eers moet ons twee net deurnag

       G1     F#                   A
Om die wêreld te kan wys dat die skim soos ek en jy die lig sal bring

G1            F#              A
   en dat ons wel laaste sal lag.

_______________________________________________________________________________________________

Outro
_______________________________________________________________________________________________

D A G









_______________________________________________________________________________________________

Lead Section: Guitar 2
_______________________________________________________________________________________________

Riff 1:

D |---------------------------------------------------------------------|
A |--------------------15/18-------------------------------/19----------|
F#|-----14/13-------/16----------------16----16-18---16-18-----18/16----|  
D |-11--------15/13-----------18----------18-------------------------15-|
A |-------------------------------/18-----------------------------------|
D |---------------------------------------------------------------------|


D |-------------------|
A |-------------------|
F#|-------------------|  
D |-------11----------|
A |-11/13----13/15-11-|
D |-------------------|

_______________________________________________________________________________________________

Outro:
_______________________________________________________________________________________________

D |------------------------------------------------------------------------|
A |------------------15/18-------------------------------------------------|
F#|---14/13-------/16------------------------------------------------------|  
D |---------15/13-----------13/15---------------------10-13\10-------------|
A |-------------------------14/16---13/11-13-11---/11----------13/15-15\13-|
D |------------------------------------------------------------------------|


D |------------------------------------------------------------------------------|
A |-------------------------------------18---------------------------------------|
F#|---------------------------------/18----18--16p14-------16p14-----------------|  
D |--------------------------------------------------15\13------15\13-11/13\11---|
A |----------11-----------11/13\11-----------------------------------------------|
D |-11h13h15----11h13h15---------------------------------------------------------|


D |---------------------------------------------------------------------------------------|
A |---------------------------------------------------------------------------------------|
F#|---------------------------------------------------------------------------------------|  
D |-10h11p10----10------------------------------------------------------------------------|
A |----------13----11\8/11--/11-10---------------------------------11-----------11/13\11--|
D |--------------------------------15-15-13--15-15-13-11--11h13h15----11h13h15------------|

---------------------------
This file passed through:
       Absolute Tabs
   http://www.tabs.co.za
---------------------------