Guitar tablature for Never ever ever by Wonderboom
#----------------------------------PLEASE NOTE---------------------------------#
#This file is the author's own work and represents their interpretation of the #
#song. You may only use this file for private study, scholarship, or research. #
#------------------------------------------------------------------------------##

     SONG: NEVER EVER EVER
   ARTIST: WONDERBOOM 
    ALBUM: REWIND (????)
  WEBSITE:  -

     TYPE: Guitar Tablature
TABBED BY: GERRIE VAN EEDEN
    EMAIL: gj_777@yahoo.com
COMMENTS: C'MON PPL START TABBING OUT SA MUSIC
           IF ANYONE HAS ANY SPRINGBOK NUDE GIRLS TABS
PLEASE MAIL THEM TO ME AT THE ABOVE                 
ADDRESS

    C#       A           B            E            
e:----------------5------------7------------0-----|
b:--------5-----5---5--------7---7--------0---0---|
g:------6-----6-------6----8-------8----1-------1-|

RIFF 1
d:----6-------------------------------------------|
a:--4---------------------------------------------|
e:----------5------------7-----------0------------|

     *     *     *     *                              
         
e:---4-----5-----7-----0---|
b:---5-----5-----7-----0---|
g:---6-----6-----8-----1---| RIFF 2   * - STRUM 4X
d:---6-----7-----9-----2---|
a:---4-----7-----9-----2---|
e:---X-----5-----7-----0---|
                                  

e:------------------------------------------------|
b:--4-5-5-5-4-4-4-2-2-2-4-4-4-4-5-5-5-4-4-4-2-2-2-|
g:------------------------------------------------|

RIFF 3 (REPEAT X TIMES)
d:------------------------------------------------|
a:------------------------------------------------|
e:------------------------------------------------|

VERSE 1
GUITAR 1 - RIFF1
GUITAR 2 - C#-A-B-E
let's slide to the cockpit and back
tonight im gonna dye my hair black
snakes and ladders, dark and silver bulletproof vests
never keeps a man from having a blast

 CHORUS PT 1
 GUITAR 1 - RIFF 1
 GUITAR 2 - RIFF 2 (SOFTLY)
 so im never ever ever gonna let you go
 im never ever gonna take it slow  
 i can handle rejection but dont say no
 im never gonna let you gonna let you
 CHORUS PT 2
 GUITAR 1+2 - RIFF 2 (DISTORTION)
 well im never ever ever gonna let you go
 im never ever gonna take it slow  
 i can handle rejection but dont say no
 im never gonna let you gonna let you
 you make you cry-y-y-y-y-y-y


INTERLUDE: GUITAR 1 RIFF 3 (4X)
           GUITAR 2 E-C#-A-B  

VERSE 2
SAME AS VERSE 1
tonight we'll take it too far
its allright go on and pick yourself a star
its a business we call show
well im never gonna let you, gonna let you

 CHORUS PT 2
 so im never ever ever gonna let you go
 im never ever gonna take it slow  
 i can handle rejection but dont say no
 im never gonna let you gonna let you
 make you cry-y-y-y-y-y-y

INTERLUDE: GUITAR 1 RIFF 3 (4X)
           GUITAR 2 E-C#-A-B

 CHORUS PT 2
 well im never ever ever gonna let you go
 im never ever gonna take it slow  
 i can handle rejection but dont say no
 im never gonna let you gonna let you gonna let you

 CHORUS PT 2
 well im never ever ever gonna let you go
 im never ever gonna take it slow  
 i can handle rejection but dont say no | im never ever.....
 im never gonna let you gonna let you   | im never ever.....

 CHORUS PT 2
 well im never ever ever gonna let you go
 im never ever gonna take it slow  
 i can handle rejection but dont say no
 im never gonna let you gonna let you gonna let you

FADE OUT.........


---------------------------
This file passed through:
       Absolute Tabs
   http://www.tabs.co.za
---------------------------