Guitar tablature for Giant Mistake by Parlotones, The (tabbed by kunuk)
#----------------------------------PLEASE NOTE---------------------------------#
#This file is the author's own work and represents their interpretation of the #
#song. You may only use this file for private study, scholarship, or research. #
#------------------------------------------------------------------------------##

Giant Mistake - The Parlotones
Album:  A World Next to Yours
Acoustic version from the London Balcony appearance



This tab was based off of a single guitar, all Khan performance, so it
may not be exactly the same as the album version. The intro and outro
sections make this tab an intermediate level tab. However, if you want
to make it easier to play, you could always play the open versions of
those chords as outlined in the quick reference section.

Here are the chords used in the song for quick reference:
        A     Asus2     Bm      D       Em      G                
e:------0-------0-------2-------2-------0-------3-------
B:------2-------0-------3-------3-------0-------3-------
G:------2-------2-------4-------2-------0-------0-------
D:------2-------2-------4-------0-------2-------0-------
A:------0-------0-------2---------------2-------2-------
E:--------------------------------------0-------3-------

Have fun! Please let me know if there any changes/suggestions you have
to make the tab better,
Your Friendly Neighbourhood Kunuk – kunuk@rocketmail.com

======================================================================

INTRO:
    E      Em        Asus2  A        E      Em        Asus2  A
e:-7-7-7--7-7-7-7---5-5-5--5-5-5-5--7-7-7--7-7-7-7---5-5-5--5-5-5-5--|
B:-8-8-8--7-7-7-7---5-5-5--5-5-5-5--8-8-8--7-7-7-7---5-5-5--5-5-5-5--|
G:-9-9-9--9-9-9-9---7-7-7--6-6-6-6--9-9-9--9-9-9-9---7-7-7--6-6-6-6--|
D:-9-9-9--9-9-9-9---7-7-7--7-7-7-7--9-9-9--9-9-9-9---7-7-7--7-7-7-7--|
A:-7-7-7--7-7-7-7---7-7-7--7-7-7-7--7-7-7--7-7-7-7---7-7-7--7-7-7-7--|
E:------------------5-5-5--5-5-5-5-------------------5-5-5--5-5-5-5--|


Em     Asus2  A   Em    Asus2  A
Woo ooo ooo ooo,  woo ooo ooo ooo
Em     Asus2  A   Em    Asus2  A
Woo ooo ooo ooo,  woo ooo ooo ooo


VERSE1:
G          Bm
Devilishly gorgeous temptress
G                    A
She, she knew that I would
G             Bm
And elegantly wasted tasted more
G           A
More than I should


TRANSITION:
- Try using bar chords here and slide up from the G to the A
Bm             G     A
Was a giant mistake
Bm             G     A
Was a giant mistake


CHORUS:
D                     Bm
What the hell were we thinking
                    G
Were we thinking at all?
                     A            D
What the hell did we believe we'd achieve
                        Bm
We stood there with our hearts exposed
                     G
As the others said I told you so
G
What the hell
         Em
What the hell


Em     Asus2  A   Em    Asus2  A
Woo ooo ooo ooo,  woo ooo ooo ooo
Em     Asus2  A   Em    Asus2  A
Woo ooo ooo ooo,  woo ooo ooo ooo


VERSE2:
G              Bm
And eloquently said the phrase that pays
G                           A
But somehow, I'm still flat broke
G               Bm
And succulently licked four, five, six, seven
G              A
Don't leave me alone


TRANSITION:
- Try using bar chords here and slide up from the G to the A
Bm             G     A
Was a giant mistake
Bm             G     A
Was a giant mistake


CHORUS:
D                     Bm
What the hell were we thinking
                    G
Were we thinking at all?
                     A            D
What the hell did we believe we'd achieve
                        Bm
We stood there with our hearts exposed
                     G
As the others said I told you so
G
What the hell
         A
What the hell


Em     Asus2  A   Em    Asus2  A
Woo ooo ooo ooo,  woo ooo ooo ooo
Em     Asus2  A   Em    Asus2  A
Woo ooo ooo ooo,  woo ooo ooo ooo


CHORUS: (2X)
D                     Bm
What the hell were we thinking
                    G
Were we thinking at all?
                     A            D
What the hell did we believe we'd achieve
                        Bm
We stood there with our hearts exposed
                     G
As the others said I told you so
G
What the hell
         A
What the hell


OUTRO:
    E      Em       Asus2  A        E      Em       Asus2  A       D
e:-7-7-7--7-7-7-7--5-5-5--5-5-5-5--7-7-7--7-7-7-7--5-5-5--5-5-5-5--2-|
B:-8-8-8--7-7-7-7--5-5-5--5-5-5-5--8-8-8--7-7-7-7--5-5-5--5-5-5-5--3-|
G:-9-9-9--9-9-9-9--7-7-7--6-6-6-6--9-9-9--9-9-9-9--7-7-7--6-6-6-6--2-|
D:-9-9-9--9-9-9-9--7-7-7--7-7-7-7--9-9-9--9-9-9-9--7-7-7--7-7-7-7--0-|
A:-7-7-7--7-7-7-7--7-7-7--7-7-7-7--7-7-7--7-7-7-7--7-7-7--7-7-7-7----|
E:-----------------5-5-5--5-5-5-5------------------5-5-5--5-5-5-5----|

======================================================================

---------------------------
This file passed through:
       Absolute Tabs
   http://www.tabs.co.za
---------------------------