Guitar tablature for Obituary by Lithium
#----------------------------------PLEASE NOTE---------------------------------#
#This file is the author's own work and represents their interpretation of the #
#song. You may only use this file for private study, scholarship, or research. #
#------------------------------------------------------------------------------##

Lithium - Obituary
Album - Broken
Tabbed By: Shaun Pretorius


Intro:
E--------------------------
B--------------------------
G--------------------------
D-s9-9-10-10-12-12-10-9-5s9
A--0-0--0--0--0--0--0-0-0-0
E--------------------------

E-----------------------
B-----------------------
G-----------------------
D-s7-7-9-9-10-10-9-7-5s7
A--0-0-0-0--0--0-0-0-0-0
E-----------------------

E----------------------
B----------------------
G----------------------
D-s2-2-4-4-5-5-7-5-4-5-
A----------------------
E----------------------

E--------------------------
B--------------------------
G--------------------------
D-s7-7-9-9-10-10-12-10-9-10
A--------------------------
E--------------------------

E-----------------------------
B-----------------------------
G-s9-9-11-11-12-12-14-12-11-12
D-----------------------------
A-----------------------------
E-----------------------------

E---------------------------------------------
B-s12-12-13-13-15-12h13p12-10-12-10h12p10-----
G------------------------------------------11~
D---------------------------------------------
A---------------------------------------------
E---------------------------------------------

Repeat 2 times
E------------------------------------------------------------------
B-----0--------0---------------------------------------------------
G-----------------------5-------5-------7-------7-------5-------5--
D---------------------5---5---5---5---7---7---7---7---5---5---5---5
A---2---2----2---2--3-------3-------5-------5-------3-------3------
E-0--------0-------------------------------------------------------

Then this...twice
E-------------------------------------------------------------
B-----0--------0----------------------------------------------
G-----------------------3-------3-------2-------2-------------
D---------------------5---5---5---5---2---2---2---2-----------
A---2---2----2---2--3-------3-------0-------0--------7-7-11-10
E-0--------0--------------------------------------------------

Repeat this riff 3 times
E----------
B----------
G----------
D----------
A-7-7-11-10
E----------

MAIN RIFF :
E---------------------------
B---------------------------
G----4-4//5--5//2-2--4//5//4
D-2--4-4//5--5//2-2--4//5//4
A-2--2-2//3--3//0-0--2//3//2
E-0-------------------------

VERSE :
E-------------------
B-------------------
G-----------5-5--5-5
D-2-2--2-2--5-5--5-5
A-2-2--2-2--3-3--3-3
E-0-0--0-0----------

MAIN RIFF - FASTER PART:
E-------------------------
B-------------------------
G----4//5--5//2-----------
D-2--4//5--5//2-----------
A-2--2//3--3//0--0-3-2-0-2
E-0-----------------------

E--------------------
B--------------------
G-8s9-------------6s7
D-8s9--9s10--4s5--6s7
A-6s7--9s10--4s5--4s5
E------7s-8--2s3-----

E-------------------
B-------------------
G-------------------
D-------------------
A-6-7------------4-5
E------7-8--2-3-----

...then just some feedback

then this solo:
play this part 4 times
E-------------------------------
B-------------------------------
G-------------------------------
D-------9~-7-9-10-9-7~-9-10-9-7~
A-7-7-7-------------------------
E-------------------------------

then...after the 4th time play this
E---------
B---------
G---------
D-5-7-5---
A-------7b
E---------=



---------------------------
This file passed through:
       Absolute Tabs
   http://www.tabs.co.za
---------------------------