Guitar tablature for Hole by Lithium
#----------------------------------PLEASE NOTE---------------------------------#
#This file is the author's own work and represents their interpretation of the #
#song. You may only use this file for private study, scholarship, or research. #
#------------------------------------------------------------------------------##

Lithium - Hole
Album : Take Out EP
Tabbed By : Shaun Pretorius

INTRO:
E------------------------------
B------------------------------
G------------------------------
D------------------------------
A------------------------------
E-0-6-5-0-5-3-0-3-2-0-2-1-0-3-1

Verse:
E-----------
B-----------
G-----------
D-4-4-/7-4-4
A-4-4-/7-4-4
E-0h2-/5-2-2

Intbetween:
"is this the best I can do?"
E----------------
B----------------
G-4-4-4-4-6-6-6-6
D-4-4-4-4-6-6-6-6
A-2-2-2-2-4-4-4-4
E----------------

"You say that it's just a faze..."
E------------------------------
B------------------------------
G------------------------------
D------------------------------
A------------------------------
E-0-6-5-0-5-3-0-3-2-0-2-1-0-3-1
  PM:::::::::::::::::::::::::::

SOLO NOT INCLUDED...SORRY...=


---------------------------
This file passed through:
       Absolute Tabs
   http://www.tabs.co.za
---------------------------