Guitar tablature for Be Strange by Lithium
#----------------------------------PLEASE NOTE---------------------------------#
#This file is the author's own work and represents their interpretation of the #
#song. You may only use this file for private study, scholarship, or research. #
#------------------------------------------------------------------------------##

LiTHiUM - BE STRANGE
Album : Broken
Tabbed by : Shaun Pretorius

The whole song is basically this:

{repeat this three times}
E-----------
B-2-3-2-----
G-2-2-2-----
D-2-2-2--2-2
A--------2-2
E--------0-0

{...then this once}
E-------------
B-------------
G-5-5-5--7-7-7
D-5-5-5--7-7-7  <--{listen to song for amount of strums, about 4 times on each chord}
A-3-3-3--5-5-5
E-------------


---------------------------
This file passed through:
       Absolute Tabs
   http://www.tabs.co.za
---------------------------