Guitar tablature for My vissermanvriend se pa by Robbie Wessels (tabbed by De Wet)
#----------------------------------PLEASE NOTE---------------------------------#
#This file is the author's own work and represents their interpretation of the #
#song. You may only use this file for private study, scholarship, or research. #
#------------------------------------------------------------------------------##

Robbie Wessels - My Vissermanvriend se Pa

Weereens hallo almal, De Wet Fourie hierso. Ek kon nie 'n tab kry van hierdie liedjie
wat alles mooi uispel nie so toe maak ek my eie een (sover ek kon). Luister
maar net mooi na die ritme en geniet hom. Enige vrae, kritiek, of advies laat my
weet by dewet_pluh@yahoo.co.uk


Intro

   C        klap      klap     klap
e----------------------------------
B-------1-0-------0h1--------1-----
G-------0-0-------0-0--------0-----     X2
D----2-----------------------------
A--3-------------3----------3------
E----------------------------------


Vers 1

   C        klap      klap     klap          klap   Am      klap      klap      klap
e-----------------------------------------------------------------------------------
B-------1-0-------0h1--------1-----------1-0------------1-0-------0h1--------1------
G-------0-0-------0-0--------0-----------0-0------------2-2-------2-2--------2------    
D----2---------------------------------2--------------2-----------------------------
A--3-------------3----------3--------3--------------0------------0----------0-------
E-----------------------------------------------------------------------------------
  Ek sing........                  ...........sal vergeet nie



   C        klap      klap     klap       Am       klap     klap   klap
e----------------------------------------------------------------------
B-------1-0-------0h1--------1------1-0----1---1-0-------0h1------1----
G-------0-0-------0-0--------0------0-0----2---2-2-------2-2------2----
D----2---------------------------------------2-------------------------
A--3-------------3----------3--------------0------------0--------0-----
E----------------------------------------------------------------------
Hierdie woorde...           ...sleg dinge



    C        klap      klap     klap        F              C                    G
e----------------------------------       -----1---              
B-------1-0-------0h1--------1-----       -------1-
G-------0-0-------0-0--------0-----       ---2-----   en ek kan waaragtig waar nie uitmaak   
D----2-----------------------------       ---------    wat hy eintlik hier speel nie maar
A--3-------------3----------3------       ---------   as jy rond neuk met 'n C en G dan is
E----------------------------------       -1-------     die kaap hollands
  En...                                 ...stil


Koor
C                                           F                      C
As die son sak en die wind gaan le, en die bote kies koers na die waters
                           F                C
Dan dink ek terug aan my vissermanvriend se pa.
                                                                                     F
Met sy vellies en sy kniebroek maak hy grappies, en die waarhede op die punt van sy tong
          C             F          C
Laat my besef hy was 'n pa vir ons almal                C  G  F C

Vers 2

Elke diertjie, elke voeltjie het 'n doel in sy bestaan, pas op vir 'n slegte vrou.
Dis die laaste woorde van 'n oom wat nooit wou afbreek maar wou bou.
En as ek aan hom dink, dan word ek stil, en ek verlang weer na my vissermanvriend se pa.

---------------------------
This file passed through:
       Absolute Tabs
   http://www.tabs.co.za
---------------------------