Guitar tablature for Katriena by Karen Zoid
#----------------------------------PLEASE NOTE---------------------------------#
#This file is the author's own work and represents their interpretation of the #
#song. You may only use this file for private study, scholarship, or research. #
#------------------------------------------------------------------------------##

Artist: Karen Zoid
Song: Katriena
Album: Poles Apart

TAbbed: Gideon Breytenbach
 Vir enige voorstelle
 enige iets
 kontak my asb. Gipi@thecricket.co.za

 - Ja daars kla `n katriena mar ekt gedog ek maak dit nie makliker want die ander een is bietjie deurmekaar
 - Die pickings is reg hier
 - Die chords is genoem en op die regter plek
 - Thanx aan Chrisna Herbst wat die orginal getab het
 - Lastly....., enjoy!!!

{-x-x-x-x-x-x-x-x-x-x-x-x-x-x-x-x-x-x-x-x-x-x-x-x-x-x-x-x-x-x-x-x-x-x-x-x-x-x-x-x-x-x-x-x-x-x-x-x-x-x-x-x-x-x-x-x-x-x-x-x-}
  
Chords
        EADGBe     EADGBe
Am      002210  or 577555
E       022100  of 779977
G       320001  or 355433
D 000232  of 557755


INTRO:


e:|--------------------------------------------------------------------------------------------------|
a:|--------------------------------------------------------------------------------------------------|
d:|---------------------2-------------------2---------------------2-------------------------2----2-0-|
g:|---1-0-0-0-1-0-0-1-0 ---1-0-0-0-1-0-0-1-0-----1-0-0-0-1-0-0-1-0---------1-0-0-0-1-0-0-1-0--1-0----|
b:|--3--------------------3---------------------3-------------------------3--------------------------|
e:|-0--------------------0-------------------3-0-----------------------3-0---------------------------|

    Am                         E
sy stap deur die bos deur die enkel voetpad
   G                          D
sy stap deur die bos deur die eensame dag
    Am                       E
die stilte wat roep soos die mens se verlange
    G                  D       
die mens se verlange alleen met slentergang
   Am                         E
sy voel hoe die wind deur die blare ritsel
   G                       D
sy hoor nou 'n voel met 'n vrolike fluit
   Am                       E
sy dink aan die mens en die ewige lewe
    G          D
die ewige lewe vreugvolle fees



[Chorus]
  Am              E
katriena katriena katriena katryn
   E                     Am
is lief vir haar lewe en lief vir haar wyn
  Am              E
katriena katriena katriena katryn
   E                     Am
is lief vir haar lewe en lief vir haar wyn



   Am                     E
sy deel haar pad met die heroin monster
   G                        D
sy voel hoe sy asem in haar ore fluister
   Am                        E
sy sien, sy versteen as die lewe wyk
       G               D
as die lewe wyk na die ewigheid


[Chorus]


   Am                          E
sy voel hoe 'n rilling in haar rug afwriemel
   G                          D  
sy sien hoe die engel van die dood vir haar staar
    Am                   E
die stilte word warm die lewe word donker
    G                        D
die wereld word donker as sy dood neer slaan


[Chorus]


Am
katriena heroina
E
katriena amfetamina
Am
katriena kokaina
E
katriena

liefde het 'n lettergreep


Am
katriena katriena katriena katryn
E
was lief vir haar lewe en so bietjie vir my
Am
katrien katriena katryn
E
was te opgevang in haar sadness en pyn


e:|--------------------------------------------------------------------------------------------------|
a:|--------------------------------------------------------------------------------------------------|
d:|---------------------2-------------------2---------------------2-------------------------2----2-0-|
g:|---1-0-0-0-1-0-0-1-0 ---1-0-0-0-1-0-0-1-0-----1-0-0-0-1-0-0-1-0---------1-0-0-0-1-0-0-1-0--1-0----|
b:|--3--------------------3---------------------3-------------------------3--------------------------|
e:|-0--------------------0-------------------3-0-----------------------3-0---------------------------|


---------------------------
This file passed through:
       Absolute Tabs
   http://www.tabs.co.za
---------------------------