Guitar tablature for Tevrede? by Fokofpolisiekar
#----------------------------------PLEASE NOTE---------------------------------#
#This file is the author's own work and represents their interpretation of the #
#song. You may only use this file for private study, scholarship, or research. #
#------------------------------------------------------------------------------##


     SONG: Tevrede?
   ARTIST: Fokofpolisiekar
    ALBUM: Lugsteuring
  WEBSITE:

     TYPE: Guitar Tablature
TABBED BY: theo
    EMAIL: theodej@telkomsa.net
COMMENTS: kort net 'n solo


                  (intro kort werk :)   Guitar 1                                              
E||--------------------------------|-------------------------------|
B||---6--6-6--6-6-6-6-6-6-6--6-6-6-|--2--2-2--2-2-2----------------|
G||*--7--7-7--7-7-7-7-7-7-7--7-7-7-|--2--2-2--2-2-2-6-6-6-6--6-6-6-|
D||*--7--7-7--7-7-7-7-7-7-7--7-7-7-|--2--2-2--2-2-2-7-7-7-7--7-7-7-|
A||---5--5-5--5-5-5-5-5-5-5--5-5-5-|--0--0-0--0-0-0-7-7-7-7--7-7-7-|
E||--------------------------------|----------------5-5-5-5--5-5-5-|


                                                              2x
-----1------------------------|-----3-------------------------||
-----1------------------------|-----3-------------------------||
-----2--2-2-2-2--2-2--2-2-2-2-|-----4--4-4-4-4--4-4--4-4-4-4-*||
--3--3--3-3-3-3--3-3--3-3-3-3-|--5--5--5-5-5-5--5-5--5-5-5-5-*||
--3--3--3-3-3-3--3-3--3-3-3-3-|--5--5--5-5-5-5--5-5--5-5-5-5--||
--1--1--1-1-1-1--1-1--1-1-1-1-|--3--3--3-3-3-3--3-3--3-3-3-3--||


                                                                
-------------------------------|-------------------------------|
--6--6-6--6-6-6-6-6-6-6--6-6-6-|-------------------------------|
--7--7-7--7-7-7-7-7-7-7--7-7-7-|--6--6-6--6-6-6-6-6-6-6--6-6-6-|
--7--7-7--7-7-7-7-7-7-7--7-7-7-|--7--7-7--7-7-7-7-7-7-7--7-7-7-|
--5--5-5--5-5-5-5-5-5-5--5-5-5-|--7--7-7--7-7-7-0-0-0-0--0-0-0-|
-------------------------------|--5--5-5--5-5-5-5-5-5-5--5-5-5-|


                                                              
-----1------------------------|-----3------------------------|
-----1------------------------|-----3------------------------|
-----2--2-2-2-2--2-2--2-2-2-2-|-----4--4-4-4-4--4-4--4-4-4-4-|
--3--3--3-3-3-3--3-3--3-3-3-3-|--5--5--5-5-5-5--5-5--5-5-5-5-|
--3--3--3-3-3-3--3-3--3-3-3-3-|--5--5--5-5-5-5--5-5--5-5-5-5-|
--1--1--1-1-1-1--1-1--1-1-1-1-|--3--3--3-3-3-3--3-3--3-3-3-3-|


                                                                          
-------------------------|---------------------|-------------------------|
-------------------------|---------------------|-------------------------|
-------------------------|---------------------|-------------------------|
-------------------------|--7----5----3--------|-------------------------|
--5---8-7--5--3--2--0----|---------------------|--5---8-7--5--3--2--0----|
-------------------------|---------------------|-------------------------|


                                                     
-------------------|--------0--------------0--------|
-------------------|------6----6---6-----6----6---6-|
-------------------|----7--------7-----7--------7---|
-------------------|--8--------------8--------------|
--2----------------|--------------------------------|
-------------------|--------------------------------|

Vers 1
  Guitar 1                                                                
--------0--------------0--------|--------0--------------0--------|
------6----6---6-----6----6---6-|------6----6---6-----6----6---6-|
----7--------7-----7--------7---|----5--------5-----5--------5---|
--0--------------0--------------|--5--------------5--------------|
--------------------------------|--------------------------------|
--------------------------------|--------------------------------|


                                                                   
--------0--------0-----0-----0---|--------0--------------0--------|
------6----6---6---6-----6-----6-|------6----6---6-----6----6---6-|
----5--------5-------5-----5-----|----7--------7-----7--------7---|
--5------------------------------|--8--------------8--------------|
---------------------------------|--------------------------------|
---------------------------------|--------------------------------|


                                                                               
--------0--------------0--------|--------0--------|
------6----6---6-----6----6---6-|------6----6---6-|
----7--------7-----7--------7---|----5--------5---|
--0--------------0--------------|--5--------------|
--------------------------------|-----------------|
--------------------------------|-----------------|

Vers 1
Guitar 2 (palm muted)                                              

|----------------------------------|
|----------------------------------|
|----------------------------------|
|--7-7-7-7-7-7-7-7-7-7-7-7-7-7-7-7-|
|--5-5-5-5-5-5-5-5-5-5-5-5-5-5-5-5-|
|----------------------------------|


                                                                      
----------------------------------|----------------------------------|
----------------------------------|----------------------------------|
----------------------------------|----------------------------------|
--5-5-5-5-5-5-5-5-5-5-5-5-5-5-5-5-|--5-5-5-5-5-5-5-5-5-5-5-5-5-5-5-5-|
--3-3-3-3-3-3-3-3-3-3-3-3-3-3-3-3-|--3-3-3-3-3-3-3-3-3-3-3-3-3-3-3-3-|
----------------------------------|----------------------------------|


                                                                      
----------------------------------|----------------------------------|
----------------------------------|----------------------------------|
----------------------------------|----------------------------------|
--7-7-7-7-7-7-7-7-7-7-7-7-7-7-7-7-|--5-5-5-5-5-5-5-5-5-5-5-5-5-5-5-5-|
--5-5-5-5-5-5-5-5-5-5-5-5-5-5-5-5-|--3-3-3-3-3-3-3-3-3-3-3-3-3-3-3-3-|
----------------------------------|----------------------------------|

Refrain
Guitar 2
                                                                   
|----------------------------------|
|----------------------------------|
|--5-5-5-5-5-5-5-5-7-7-7-7-7-7-7-7-|
|--5-5-5-5-5-5-5-5-7-7-7-7-7-7-7-7-|
|--3-3-3-3-3-3-3-3-5-5-5-5-5-5-5-5-|
|----------------------------------|


                                                                      
----------------------------------|----------------------------------|
----------------------------------|----------------------------------|
----------------------------------|----------------------------------|
--3-3-3-3-3-3-3-3-3-3-3-3-3-3-3-3-|--7-7-7-7-7-7-7-7-5-5-5-5-5-5-5-5-|
--3-3-3-3-3-3-3-3-3-3-3-3-3-3-3-3-|--7-7-7-7-7-7-7-7-5-5-5-5-5-5-5-5-|
--1-1-1-1-1-1-1-1-1-1-1-1-1-1-1-1-|--5-5-5-5-5-5-5-5-3-3-3-3-3-3-3-3-|


                                                                      
----------------------------------|----------------------------------|
----------------------------------|----------------------------------|
----------------------------------|--7-7-7-7-7-7-7-7-7-7-7-7-7-7-7-7-|
--3-3-3-3-3-3-3-3-3-3-3-3-3-3-3-3-|--7-7-7-7-7-7-7-7-7-7-7-7-7-7-7-7-|
--3-3-3-3-3-3-3-3-3-3-3-3-3-3-3-3-|--5-5-5-5-5-5-5-5-5-5-5-5-5-5-5-5-|
--1-1-1-1-1-1-1-1-1-1-1-1-1-1-1-1-|----------------------------------|


                                                                      
----------------------------------|----------------------------------|
----------------------------------|----------------------------------|
--5-5-5-5-5-5-5-5-5-5-5-5-5-5-5-5-|----------------------------------|
--5-5-5-5-5-5-5-5-5-5-5-5-5-5-5-5-|--5-5-5-5-5-5-5-5-5-5-5-5-5-5-5-5-|
--3-3-3-3-3-3-3-3-3-3-3-3-3-3-3-3-|--5-5-5-5-5-5-5-5-5-5-5-5-5-5-5-5-|
----------------------------------|--3-3-3-3-3-3-3-3-3-3-3-3-3-3-3-3-|


                                                                  
------------------------------|----------------------------------|
------------------------------|----------------------------------|
------------------------------|--7-7-7-7-7-7-7-7-7-7-7-7-7-7-7-7-|
--5-5-5-5-5-5-5-5-5-5-5-5-5-5-|--7-7-7-7-7-7-7-7-7-7-7-7-7-7-7-7-|
--5-5-5-5-5-5-5-5-5-5-5-5-5-5-|--5-5-5-5-5-5-5-5-5-5-5-5-5-5-5-5-|
--3-3-3-3-3-3-3-3-3-3-3-3-3-3-|----------------------------------|


                                                                      
----------------------------------|----------------------------------|
----------------------------------|----------------------------------|
----------------------------------|--3-3-3-3-3-3-3-3-3-3-3-3-3-3-3-3-|
--7-7-7-7-7-7-7-7-7-7-7-7-7-7-7-7-|--3-3-3-3-3-3-3-3-3-3-3-3-3-3-3-3-|
--7-7-7-7-7-7-7-7-7-7-7-7-7-7-7-7-|--1-1-1-1-1-1-1-1-1-1-1-1-1-1-1-1-|
--5-5-5-5-5-5-5-5-5-5-5-5-5-5-5-5-|----------------------------------|


                                                                      
----------------------------------|----------------------------------|
----------------------------------|----------------------------------|
----------------------------------|--7-7-7-7-7-7-7-7-7-7-7-7-7-7-7-7-|
--3-3-3-3-3-3-3-3-3-3-3-3-3-3-3-3-|--7-7-7-7-7-7-7-7-7-7-7-7-7-7-7-7-|
--3-3-3-3-3-3-3-3-3-3-3-3-3-3-3-3-|--5-5-5-5-5-5-5-5-5-5-5-5-5-5-5-5-|
--1-1-1-1-1-1-1-1-1-1-1-1-1-1-1-1-|----------------------------------|


                                                                      
----------------------------------|----------------------------------|
----------------------------------|----------------------------------|
----------------------------------|--3-3-3-3-3-3-3-3-3-3-3-3-3-3-3-3-|
--7-7-7-7-7-7-7-7-7-7-7-7-7-7-7-7-|--3-3-3-3-3-3-3-3-3-3-3-3-3-3-3-3-|
--7-7-7-7-7-7-7-7-7-7-7-7-7-7-7-7-|--1-1-1-1-1-1-1-1-1-1-1-1-1-1-1-1-|
--5-5-5-5-5-5-5-5-5-5-5-5-5-5-5-5-|----------------------------------|


                                                                            
----------------------------------|
----------------------------------|
----------------------------------|
--3-3-3-3-3-3-3-3-3-3-3-3-3-3-3-3-|
--3-3-3-3-3-3-3-3-3-3-3-3-3-3-3-3-|
--1-1-1-1-1-1-1-1-1-1-1-1-1-1-1-1-|


Guitar 1
                                                                               
-------------------------|---------------------|-------------------------|
-------------------------|---------------------|-------------------------|
-------------------------|---------------------|-------------------------|
-------------------------|--7----5----3--------|-------------------------|
--5---8-7--5--3--2--0----|---------------------|--5---8-7--5--3--2--0----|
-------------------------|---------------------|-------------------------|


                                                     
-------------------|
-------------------|
-------------------|
-------------------|
--2----------------|
-------------------|

Vers 2
Guitar 1

|--------0--------------0--------|
|------6----6---6-----6----6---6-|
|----7--------7-----7--------7---|
|--8--------------8--------------|
|--------------------------------|
|--------------------------------|
|--------0--------------0--------|
|------6----6---6-----6----6---6-|
|----7--------7-----7--------7---|
|--8--------------8--------------|
|--------------------------------|
|--------------------------------|
                                                                  
--------0--------------0--------|--------0--------------0--------|
------6----6---6-----6----6---6-|------6----6---6-----6----6---6-|
----7--------7-----7--------7---|----5--------5-----5--------5---|
--0--------------0--------------|--5--------------5--------------|
--------------------------------|--------------------------------|
--------------------------------|--------------------------------|


                                                                   
--------0--------0-----0-----0---|--------0--------------0--------|
------6----6---6---6-6---6-6---6-|------6----6---6-----6----6---6-|
----5--------5-------------------|----7--------7-----7--------7---|
--5------------------------------|--8--------------8--------------|
---------------------------------|--------------------------------|
---------------------------------|--------------------------------|


                                                                             
--------0--------------0--------|
------6----6---6-----6----6---6-|
----7--------7-----7--------7---|
--0--------------0--------------|
--------------------------------|
--------------------------------|

Vers 2
Guitar 2 (Palm Muted)

|----------------------------------|
|----------------------------------|
|----------------------------------|
|--7-7-7-7-7-7-7-7-7-7-7-7-7-7-7-7-|
|--5-5-5-5-5-5-5-5-5-5-5-5-5-5-5-5-|
|----------------------------------|


                                                                      
----------------------------------|----------------------------------|
----------------------------------|----------------------------------|
----------------------------------|----------------------------------|
--7-7-7-7-7-7-7-7-7-7-7-7-7-7-7-7-|--5-5-5-5-5-5-5-5-5-5-5-5-5-5-5-5-|
--5-5-5-5-5-5-5-5-5-5-5-5-5-5-5-5-|--3-3-3-3-3-3-3-3-3-3-3-3-3-3-3-3-|
----------------------------------|----------------------------------|


                                                                      
----------------------------------|----------------------------------|
----------------------------------|----------------------------------|
----------------------------------|----------------------------------|
--5-5-5-5-5-5-5-5-5-5-5-5-5-5-5-5-|--7-7-7-7-7-7-7-7-7-7-7-7-7-7-7-7-|
--3-3-3-3-3-3-3-3-3-3-3-3-3-3-3-3-|--5-5-5-5-5-5-5-5-5-5-5-5-5-5-5-5-|
----------------------------------|----------------------------------|
                                                                
Refrain 2
Guitar 2

|----------------------------------|
|----------------------------------|
|--5-5-5-5-5-5-5-5-7-7-7-7-7-7-7-7-|
|--5-5-5-5-5-5-5-5-7-7-7-7-7-7-7-7-|
|--3-3-3-3-3-3-3-3-5-5-5-5-5-5-5-5-|
|----------------------------------|


                                                                      
----------------------------------|----------------------------------|
----------------------------------|----------------------------------|
----------------------------------|----------------------------------|
--3-3-3-3-3-3-3-3-3-3-3-3-3-3-3-3-|--7-7-7-7-7-7-7-7-5-5-5-5-5-5-5-5-|
--3-3-3-3-3-3-3-3-3-3-3-3-3-3-3-3-|--7-7-7-7-7-7-7-7-5-5-5-5-5-5-5-5-|
--1-1-1-1-1-1-1-1-1-1-1-1-1-1-1-1-|--5-5-5-5-5-5-5-5-3-3-3-3-3-3-3-3-|


                                                       
----------------------------------|-------------------|
----------------------------------|-------------------|
----------------------------------|--7----------------|
--3-3-3-3-3-3-3-3-3-3-3-3-3-3-3-3-|--7----------------|
--3-3-3-3-3-3-3-3-3-3-3-3-3-3-3-3-|--5----------------|
--1-1-1-1-1-1-1-1-1-1-1-1-1-1-1-1-|-------------------|


                                                                      
----------------------------------|----------------------------------|
----------------------------------|----------------------------------|
--5-5-5-5-5-5-5-5-5-5-5-5-5-5-5-5-|----------------------------------|
--5-5-5-5-5-5-5-5-5-5-5-5-5-5-5-5-|--5-5-5-5-5-5-5-5-5-5-5-5-5-5-5-5-|
--3-3-3-3-3-3-3-3-3-3-3-3-3-3-3-3-|--5-5-5-5-5-5-5-5-5-5-5-5-5-5-5-5-|
----------------------------------|--3-3-3-3-3-3-3-3-3-3-3-3-3-3-3-3-|


                                                          
------------------------------|--------------------------|
------------------------------|--5-5---5-5---5-5---5-5---|
------------------------------|--7-7---7-7---7-7---7-7---|
--5-5-5-5-5-5-5-5-5-5-5-5-5-5-|--7-7---7-7---7-7---7-7---|
--5-5-5-5-5-5-5-5-5-5-5-5-5-5-|--5-5---5-5---5-5---5-5---|
--3-3-3-3-3-3-3-3-3-3-3-3-3-3-|--------------------------|


                                                              
--------------------------|----------------------------------|
--6-6---6-6---6-6---6-6---|----------------------------------|
--9-9---9-9---9-9---9-9---|----------------------------------|
--7-7---7-7---7-7---7-7---|--3-3-3-3-3-3-3-3-3-3-3-3-3-3-3-3-|
--5-5---5-5---5-5---5-5---|--3-3-3-3-3-3-3-3-3-3-3-3-3-3-3-3-|
--------------------------|--1-1-1-1-1-1-1-1-1-1-1-1-1-1-1-1-|


                                                                      
----------------------------------|----------------------------------|
----------------------------------|----------------------------------|
----------------------------------|--5-5-5-5-5-5-5-5-5-5-5-5-5-5-5-5-|
--7-7-7-7-7-7-7-7-7-7-7-7-7-7-7-7-|--5-5-5-5-5-5-5-5-5-5-5-5-5-5-5-5-|
--7-7-7-7-7-7-7-7-7-7-7-7-7-7-7-7-|--3-3-3-3-3-3-3-3-3-3-3-3-3-3-3-3-|
--5-5-5-5-5-5-5-5-5-5-5-5-5-5-5-5-|----------------------------------|


                                                                      
----------------------------------|----------------------------------|
----------------------------------|----------------------------------|
--7-7-7-7-7-7-7-7-7-7-7-7-7-7-7-7-|----------------------------------|
--7-7-7-7-7-7-7-7-7-7-7-7-7-7-7-7-|--7-7-7-7-7-7-7-7-7-7-7-7-7-7-7-7-|
--5-5-5-5-5-5-5-5-5-5-5-5-5-5-5-5-|--7-7-7-7-7-7-7-7-7-7-7-7-7-7-7-7-|
----------------------------------|--5-5-5-5-5-5-5-5-5-5-5-5-5-5-5-5-|


                                                                      
----------------------------------|----------------------------------|
----------------------------------|----------------------------------|
--3-3-3-3-3-3-3-3-3-3-3-3-3-3-3-3-|----------------------------------|
--3-3-3-3-3-3-3-3-3-3-3-3-3-3-3-3-|--3-3-3-3-3-3-3-3-3-3-3-3-3-3-3-3-|
--1-1-1-1-1-1-1-1-1-1-1-1-1-1-1-1-|--3-3-3-3-3-3-3-3-3-3-3-3-3-3-3-3-|
----------------------------------|--1-1-1-1-1-1-1-1-1-1-1-1-1-1-1-1-|

Outro
Guitar 1

|--------0--------------0--------|
|------6----6---6-----6----6---6-|
|----7--------7-----7--------7---|
|--8--------------8--------------|
|--------------------------------|
|--------------------------------|


                                                                  
--------0--------------0--------|--------0--------------0--------|
------6----6---6-----6----6---6-|------6----6---6-----6----6---6-|
----7--------7-----7--------7---|----5--------5-----5--------5---|
--0--------------0--------------|--5--------------5--------------|
--------------------------------|--------------------------------|
--------------------------------|--------------------------------|


                                                                  
--------0--------------0--------|--------0--------------0--------|
------6----6---6-----6----6---6-|------6----6---6-----6----6---6-|
----5--------5-----5--------5---|----7--------7-----7--------7---|
--5--------------5--------------|--8--------------8--------------|
--------------------------------|--------------------------------|
--------------------------------|--------------------------------|


                                                                  
--------0--------------0--------|--------0--------------0--------|
------6----6---6-----6----6---6-|------6----6---6-----6----6---6-|
----7--------7-----7--------7---|----5--------5-----5--------5---|
--0--------------0--------------|--5--------------5--------------|
--------------------------------|--------------------------------|
--------------------------------|--------------------------------|


                                                                  
--------0--------------0--------|--------0--------------0--------|
------6----6---6-----6----6---6-|------6----6---6-----6----6---6-|
----5--------5-----5--------5---|----7--------7-----7--------7---|
--5--------------5--------------|--8--------------8--------------|
--------------------------------|--------------------------------|
--------------------------------|--------------------------------|


                                                                  
--------0--------------0--------|--------0--------------0--------|
------6----6---6-----6----6---6-|------6----6---6-----6----6---6-|
----7--------7-----7--------7---|----5--------5-----5--------5---|
--0--------------0--------------|--5--------------5--------------|
--------------------------------|--------------------------------|
--------------------------------|--------------------------------|


                                                                  
--------0--------------0--------|--------0--------------0--------|
------6----6---6-----6----6---6-|------6----6---6-----6----6---6-|
----5--------5-----5--------5---|----7--------7-----7--------7---|
--5--------------5--------------|--8--------------8--------------|
--------------------------------|--------------------------------|
--------------------------------|--------------------------------|


                                                                          
--------0--------------0--------|--------0--------------0--------|------||
------6----6---6-----6----6---6-|------6----6---6-----6----6---6-|------||
----7--------7-----7--------7---|----5--------5-----5--------5---|------||
--0--------------0--------------|--5--------------5--------------|------||
--------------------------------|--------------------------------|------||
--------------------------------|--------------------------------|------||

Outro
Guitar 2 (palm muted)

|----------------------------------|
|----------------------------------|
|----------------------------------|
|--3-3-3-3-3-3-3-3-3-3-3-3-3-3-3-3-|
|--1-1-1-1-1-1-1-1-1-1-1-1-1-1-1-1-|
|----------------------------------|


                                                                      
----------------------------------|----------------------------------|
----------------------------------|----------------------------------|
----------------------------------|----------------------------------|
--7-7-7-7-7-7-7-7-7-7-7-7-7-7-7-7-|--5-5-5-5-5-5-5-5-5-5-5-5-5-5-5-5-|
--5-5-5-5-5-5-5-5-5-5-5-5-5-5-5-5-|--3-3-3-3-3-3-3-3-3-3-3-3-3-3-3-3-|
----------------------------------|----------------------------------|


                                                                      
----------------------------------|----------------------------------|
----------------------------------|----------------------------------|
----------------------------------|----------------------------------|
--5-5-5-5-5-5-5-5-5-5-5-5-5-5-5-5-|--3-3-3-3-3-3-3-3-3-3-3-3-3-3-3-3-|
--3-3-3-3-3-3-3-3-3-3-3-3-3-3-3-3-|--1-1-1-1-1-1-1-1-1-1-1-1-1-1-1-1-|
----------------------------------|----------------------------------|


                                                                      
----------------------------------|----------------------------------|
----------------------------------|----------------------------------|
----------------------------------|----------------------------------|
--7-7-7-7-7-7-7-7-7-7-7-7-7-7-7-7-|----------------------------------|
--5-5-5-5-5-5-5-5-5-5-5-5-5-5-5-5-|--3-3-3-3-3-3-3-3-3-3-3-3-3-3-3-3-|
----------------------------------|--1-1-1-1-1-1-1-1-1-1-1-1-1-1-1-1-|


                                                                      
----------------------------------|----------------------------------|
----------------------------------|----------------------------------|
----------------------------------|----------------------------------|
----------------------------------|--3-3-3-3-3-3-3-3-3-3-3-3-3-3-3-3-|
--3-3-3-3-3-3-3-3-3-3-3-3-3-3-3-3-|--1-1-1-1-1-1-1-1-1-1-1-1-1-1-1-1-|
--1-1-1-1-1-1-1-1-1-1-1-1-1-1-1-1-|----------------------------------|


                                                                      
----------------------------------|----------------------------------|
----------------------------------|----------------------------------|
----------------------------------|----------------------------------|
--7-7-7-7-7-7-7-7-7-7-7-7-7-7-7-7-|--5-5-5-5-5-5-5-5-5-5-5-5-5-5-5-5-|
--5-5-5-5-5-5-5-5-5-5-5-5-5-5-5-5-|--3-3-3-3-3-3-3-3-3-3-3-3-3-3-3-3-|
----------------------------------|----------------------------------|


                                                    
----------------------------------|
----------------------------------|
----------------------------------|
--5-5-5-5-5-5-5-5-5-5-5-5-5-5-5-5-|
--3-3-3-3-3-3-3-3-3-3-3-3-3-3-3-3-|
----------------------------------|


---------------------------
This file passed through:
       Absolute Tabs
   http://www.tabs.co.za
---------------------------