Guitar tablature for Bring Jou Hart by Juanita du Plessis en Theuns Jordaan (tabbed by kunuk)
#----------------------------------PLEASE NOTE---------------------------------#
#This file is the author's own work and represents their interpretation of the #
#song. You may only use this file for private study, scholarship, or research. #
#------------------------------------------------------------------------------##

Bring Jou Hart - Juanita du Plessis en Theuns Jordaan
Album:  Bring Jou Hart



This duet marks the different singers with different strumming
patterns and chord types. When Juanita du Plessis sings, the chords
are open and the pattern is free; but when Theuns Jordaan sings, the
chords are power-chords and they are strummed on the quarters.

Here are the chords used in the song for quick reference:
       A       A5      Bm      Bm5     D       D5      E       E5
e:-----0---------------2---------------2---------------0------------
B:-----2---------------3---------------3---------------0------------
G:-----2---------------4---------------2-------7-------1------9-----
D:-----2-------7-------4--------9------0-------7-------2------9-----
A:-----0-------7-------0--------9--------------5-------2------7-----
E:-----0-------5----------------7----------------------0------------

Have fun! Please let me know if there any changes/suggestions you have
to make the tab better,
Your Friendly Neighbourhood Kunuk – kunuk@rocketmail.com

======================================================================

INTRO:
e:-----5-4-5------|---2-5-4-5------|---7-5-4---5~~~-|-5-4-7---4-7~~~-|
B:-2-5-------2~~~-|-3---------3~~~-|-2-------2------|-------5--------|
G:----------------|----------------|----------------|----------------|
D:----------------|----------------|----------------|----------------|
A:----------------|----------------|----------------|----------------|
E:----------------|----------------|----------------|----------------|


A5                                           D5
Ken jy die pad na 'n plek wat 'n merk in jou hart kan los
Bm5                                           E5   
Ken jy die spore van saamwees deur die droë Karoo
A                            D
Waar elke oomblik tussen ons geanker bly
Bm                                E
Waar al my wense lê en wag om jou hart te kry


KOOR:
D
Bring, bring jou mooiste drome
A
Bring jouself, jou liefdeswoorde
E                    D
Jou huis is waar jou hart is
       A
In die Klein Karoo
D
Gooi jou stem oor al die vlaktes
A
Graveer my naam in jou gedagtes
E                     D
Bring jou hart, bring jou lewe
               A
Na die Klein Karoo


A5                                           D5
Soek jy 'n skuilplek wat die vrese in jou hart bedaar
Bm5                                    E5
Soek jy 'n lêplek wat jou warm hou in die nag
A                                      D
Oor berg en dale loop ek vir jou as jy verdwaal
Bm                            E
Op die horison se lyn kom ek jou haal


KOOR:
D
Bring, bring jou mooiste drome
A
Bring jouself, jou liefdeswoorde
E                    D
Jou huis is waar jou hart is
               A
In die Klein Karoo
D
Gooi jou stem oor al die vlaktes
A
Graveer my naam in jou gedagtes
E                     D
Bring jou hart, bring jou lewe
               A
Na die Klein Karoo


GUITAR SOLO:
e:-------------------------------------------------------------|
B:-------------------------------------------------------------|
G:---------9-11~~~-11-13-14-14-13-16-9~~~----------------------|
D:-9-11-12--------------------------------11-12-14-14-12-11~~~-|
A:-------------------------------------------------------------|
E:-------------------------------------------------------------|

e:---------------------------------|
B:---------------------------------|
G:---------------------------------|
D:-13-9~~~-9-11-12-12-11-----------|
A:-----------------------12-12~~~~-|
E:---------------------------------|


KOOR:
D
Bring, bring jou mooiste drome
A
Bring jouself, jou liefdeswoorde
E                    D
Jou huis is waar jou hart is
       A
In die Klein Karoo
D
Gooi jou stem oor al die vlaktes
A
Graveer my naam in jou gedagtes
E                         D
Bring jou hart, bring jou lewe
               A
Na die Klein Karoo

======================================================================
Here is an English translation for all of those people out there like
myself, who dig the music, but are new to the language:
======================================================================

Do you know the way to a place a mark in your heart
Know the signs to be together in the dry Karoo
Where every moment between us remain anchored
Where all my wishes wait for your heart
  
CHORUS:
Bring, bring your most beautiful dreams
Bring yourself, your loveliest words
Your home is where your heart is
In the Klein Karoo
Cast your vote on all the plains
Engrave my name in your mind
Bring your heart, bring your life
After the Klein Karoo
  
Looking for an escape that fear in your heart subsides
Looking for a resting place to keep you warm at night
Over vast distances I’ll search for you if you’ve strayed
I’ll cross over the horizon
  
CHORUS: (2X)
Bring, bring your most beautiful dreams
Bring yourself, your loveliest words
Your home is where your heart is
In the Klein Karoo
Cast your vote on all the plains
Engrave my name in your mind
Bring your heart, bring your life
After the Klein Karoo

======================================================================

---------------------------
This file passed through:
       Absolute Tabs
   http://www.tabs.co.za
---------------------------