Guitar tablature for Meisie wat haar potlood kou by Karen Zoid
#----------------------------------PLEASE NOTE---------------------------------#
#This file is the author's own work and represents their interpretation of the #
#song. You may only use this file for private study, scholarship, or research. #
#------------------------------------------------------------------------------##

     SONG: Meisie wat haar potlood kou
   ARTIST: Karen Zoid
    ALBUM: Chasing the sun
  WEBSITE:

     TYPE: Guitar Tablature
TABBED BY: Sebastine de Jongh
    EMAIL: hdejongh@mweb.co.za
COMMENTS: Karen Zoid Rocks!!

Chords wat gebruik word binne die liedjie:
 C     Am
e:-------------------------------------------------------------------------------
b:------------1-----0-----1-----1---------------------1-----0-----1-----1--------
g:-------------------------------------------------------------------------------
d:-------------------------------------------------------------------------------
a:------3--3-----3-----3-----3---------------------------------------------------
e:----------------------------------------------0--0-----0-----0-----0-----------

 Gsus4     F
e:-------------------------------------------------------------------------------
b:------------1-----0-----1-----1---------------------1-----0-----1--1/3--0------
g:-------------------------------------------------------------------------------
d:----------------------------------------------3--3-----3-----3-----------------
a:-------------------------------------------------------------------------------
e:------3--3-----3-----3-----3---------------------------------------------------

Vers1:
[C]                               [Am]
Die meisie wat haar potlood kou.  Dink bietjie te veel.
[Gsus4]    [F]
dan snipper die verf af en gaan sit in haar keel.
[C]    [Am]
Dit onderbreek haar dagdroom. sy vergeet wat sy wou s�,
         [Gsus4]        [F]
maar die meisie wat haar potlood kou, weet wat sy wil h�

KOOR:

[C]      [Am]
As jou pad dalk sou kruis, met die
[Gsus4]   [F]
meisie wat haar potlood kou, dan is daar
[C]       [Am]
een ding wat jy moet weet, dan is daar
[Gsus4]       [F]
een ding wat jy moet onthou, sy ken jou dalk alreeds

( C;Am;Gsus4;F )

Vers2:
[C]     [Am]
Die meisie wat haar potlood kou, s� vir my sy huil nie
[Gsus4]       [F]
Hoekom dan trane, my o�'s klaar blou
[C]       [Am]
Ek huil sommer oor enigiets
[Gsus4]    [F]
  en soms dink ek aan jou

KOOR:

(C;Am;Gsus4;F) x2

BRUG:

[C]      [Am]   [Gsus4]     [F]
Na na na na, na na na na, 5 paintings het jy geverf
[C]      [Am]   [Gsus4]                   [F]
Na na na na, na na na na, Jeff Bakley Halleluja tot jy

vir my 'n pel uitkerf

KOOR:  x2


---------------------------
This file passed through:
       Absolute Tabs
   http://www.tabs.co.za
---------------------------