Guitar tablature for Bovril by 16 Stitch
#----------------------------------PLEASE NOTE---------------------------------#
#This file is the author's own work and represents their interpretation of the #
#song. You may only use this file for private study, scholarship, or research. #
#------------------------------------------------------------------------------##

Song: Bovril
Artist: 16 Stitch
Album: Beautiful Angelic Parasite


Please note! The 6th string is the low B the next is F#. The
next two B strings are 1 octave higher than the low B and the last two
strings are 1 octave higher than the middle two.

Comments: jaco.vanderwesthuizen@bcx.co.za


Intro & Verse

b -12-12-12--x-10-xx-9-9-xx-7-7-7--7h9-xx-5-7---------------
b -12-12-12--x-10-xx-9-9-xx-7-7-7--7h9-xx-5-7---------------
b --0--0--0--x--0-xx-0-0-xx-0-0-0--0-0-xx-0-0---------------
b ----------------------------------------------------------
f#----------------------------------------------------------
B ----------------------------------------------------------


Pre-Chorus

b -5-5-5-5-5-5--7-7-7-7-7-7--3h5-5-5-5p3-3-3-3h5-5-5-5p3-3-3-
b -5-5-5-5-5-5--7-7-7-7-7-7--3h5-5-5-5p3-3-3-3h5-5-5-5p3-3-3-
b -3-3-3-3-3-3--5-5-5-5-5-5--0-0-0-0-0-0-0-0-0-0-0-0-0-0-0-0-
b -3-3-3-3-3-3--5-5-5-5-5-5----------------------------------
f#-3-3-3-3-3-3--5-5-5-5-5-5----------------------------------
B -3-3-3-3-3-3--5-5-5-5-5-5----------------------------------

b -5~--7~----------------------------------------------------
b -5~--5~----------------------------------------------------
b -3~--5~----------------------------------------------------
b -3~--5~----------------------------------------------------
f#-3~--5~----------------------------------------------------
B -3~--5~----------------------------------------------------


Chorus
                x8
b -7-9-9--3-5-3-5-|-7-9-9--3-5~--7-9-9--3-5~--7--7-7-7-------
b -7-9-9--3-5-3-5-|-7-9-9--3-5~--7-9-9--3-5~--7--7-7-7-------
b -7-7-7--3-3-3-3-|-7-7-7--3-3~--7-7-7--3-3~--5--5-5-5-------
b -7-7-7--3-3-3-3-|-7-7-7--3-3~--7-7-7--3-3~--5--5-5-5-------
f#-7-7-7--3-3-3-3-|-7-7-7--3-3~--7-7-7--3-3~--5--5-5-5-------
B -7-7-7--3-3-3-3-|-7-7-7--3-3~--7-7-7--3-3~--5--5-5-5-------


Bridge

b ---3--2--3--2-3--3--2--3--2-3------------------------------
b ---3--2--3--2-3--3--2--3--2-3------------------------------
b --0--0--0--0----0--0--0--0--0------------------------------
b -0--0--0--0----0--0--0--0----------------------------------
f#-----------------------------------------------------------
B -----------------------------------------------------------


And the other part near the end             add this for outro

b ---7--7-7-7-x-5--5-5-x-2--2-2-2h3p2-0-0--|--5~--------------
b ---7--7-7-7-x-5--5-5-x-2--2-2-2h3p2-0-0--|--5~--------------
b ---0--0-0-0-x-0--0-0-x-0--0-0-0-0-0-0-0--|--3~--------------
b -----------------------------------------|--3~--------------
f#-----------------------------------------|--3~--------------
B -----------------------------------------|--3~--------------


---------------------------
This file passed through:
       Absolute Tabs
   http://www.tabs.co.za
---------------------------