Guitar tablature for Inside out by Tweak
#----------------------------------PLEASE NOTE---------------------------------#
#This file is the author's own work and represents their interpretation of the #
#song. You may only use this file for private study, scholarship, or research. #
#------------------------------------------------------------------------------##

Inside Out
Tweak
Dirty Sanchez and the Misfit Kidz
Tabbed By Mike (mike41@webmail.co.za)
          Greg (meltdown@webmail.co.za)

Intro
e|---------------------------|
B|---------------------------|
G|---------------------------|
D|----x-x--6-7--x-x--x-7-9---|
A|-7--x-x--4-5--x-x--x-5-7---|
E|-5-------------------------|

Verse (Palm mute some parts)
e|--------------------------------|
B|--------------------------------|
G|--------------------------------|
D|-------------6------7-------9---|
A|-----7-----4-----5----5---7-----|
E|-5-5---5------------------------|

(Palm mute)
e|--------------------------------------|
B|--------------------------------------|
G|--------------------------------------|
D|----------6-6-6-6--7-7-7-7--9-9-9-9---|
A|-7-7-7-7--4-4-4-4--5-5-5-5--7-7-7-7---|
E|-5-5-5-5------------------------------|

e|--------------------------------------|
B|--------------------------------------|
G|----------6-6-6-6--7-7-7-7--9-9-9-9---|
D|-7-7-7-7--6-6-6-6--7-7-7-7--9-9-9-9---|
A|-7-7-7-7--4-4-4-4--5-5-5-5--7-7-7-7---|
E|-5-5-5-5------------------------------|

Pre Chorus
e|------------------------------------|
B|------------------------------------|
G|---------6-6-----7-7-7-7--9-9-9-9---|
D|-7-7-----6-6-----7-7-7-7--9-9-9-9---|
A|-7-7-----4-4-----5-5-5-5--7-7-7-7---|
E|-5-5--------------------------------|

Chorus
Guitar 1
e|--------------------------------|
B|--------------------------------|
G|--------------------------------|
D|-------------6------7-------9---|
A|-----7-----4-----5----5---7-----|
E|-5-5---5------------------------|

Guitar 2
e|----------------------------------|
B|----------------------------------|
G|---------6--6-6--7--7-7--9--9-9---|
D|-7--7-7--6--6-6--7--7-7--9--9-9---|
A|-7--7-7--4--4-4--5--5-5--7--7-7---|
E|-5--5-5---------------------------|

Bridge
e|------------------------------------|
B|------------------------------------|
G|------------------------------------|
D|-7-7-7-7-7-7-7-7--7-7-7-7-7-7-7-7---|
A|-7-7-7-7-7-7-7-7--7-7-7-7-7-7-7-7---|
E|-5-5-5-5-5-5-5-5--5-5-5-5-5-5-5-5---|

e|------------------------------------|
B|------------------------------------|
G|-6-6-6-6-6-6-6-6--6-6-6-6-6-6-6-6---|
D|-6-6-6-6-6-6-6-6--6-6-6-6-6-6-6-6---|
A|-4-4-4-4-4-4-4-4--4-4-4-4-4-4-4-4---|
E|------------------------------------|

e|------------------------------------|
B|------------------------------------|
G|-7-7-7-7-7-7-7-7--7-7-7-7-7-7-7-7---|
D|-7-7-7-7-7-7-7-7--7-7-7-7-7-7-7-7---|
A|-5-5-5-5-5-5-5-5--5-5-5-5-5-5-5-5---|
E|------------------------------------|

e|------------------------------------|
B|------------------------------------|
G|-9-9-9-9-9-9-9-9--9-9-9-9-9-9-9-9---|
D|-9-9-9-9-9-9-9-9--9-9-9-9-9-9-9-9---|
A|-7-7-7-7-7-7-7-7--7-7-7-7-7-7-7-7---|
E|------------------------------------|

e|----------------------------------------|
B|----------------------------------------|
G|------------------6-6-6-6--7-7-7-7--9---|
D|-7-7-7-7-7-7-7-7--6-6-6-6--7-7-7-7--9---|
A|-7-7-7-7-7-7-7-7--4-4-4-4--5-5-5-5--7---|
E|-5-5-5-5-5-5-5-5------------------------|

Interlude
Guitar 1
e|----------------------|
B|----------------------|
G|----------------------|
D|----------------------|
A|------4-5--x-5-5--7---|
E|-5--5-----------------|

Guitar 2
e|----------------------------|
B|----------------------------|
G|--------9-10--x-10-10--12---|
D|-10--10---------------------|
A|----------------------------|
E|----------------------------|


---------------------------
This file passed through:
       Absolute Tabs
   http://www.tabs.co.za
---------------------------