Guitar tablature for Promised the world by Narrow, The
#----------------------------------PLEASE NOTE---------------------------------#
#This file is the author's own work and represents their interpretation of the #
#song. You may only use this file for private study, scholarship, or research. #
#------------------------------------------------------------------------------##

     SONG: Promised the world
   ARTIST: The Narrow
    ALBUM: Self-conscious
  WEBSITE: www.thenarrow.com

     TYPE: Guitar Tablature
TABBED BY: Joe Bronx
    EMAIL: joebronx_za@yahoo.com
COMMENTS: This is as close as it gets , just listen to the rythm

Repeat 2X: Clean Guitar
e:-------------------------------------------------------------------------------------------------------------------
b:-------------------------------------------------------------------------------------------------------------------
g:-7---7-------7--7-----9---10--10----10--10-----10-/--5-5-----5--5-----7--/--9---7---7-----7---7------7-------------
d:----------0----------0-----------------0------------0---------------0-------0----------------------0----------0----
a:-------------------------------------------------------------------------------------------------------------------
e:-------------------------------------------------------------------------------------------------------------------

Distortion/Chorus:

e:--------------------------------------------------------------------------------------------------------
b:--------------------------------------------------------------------------------------------------------
g:---7---7--7---7--7-7---9---10-10-10-10---10----5----5---5--5---5---/--9----7---7----7---7---------------
d:---7---7--7---7--7-7---9---10-10-10-10---10----5----5---5--5---5---/--9----7---7----7---7---------------
a:---5---0--0---5--0-0---7----8---8---0--0-----8-----3----3---0--0---3---/--7----5---0----0---5-----------
e:--------------------------------------------------------------------------------------------------------

Verse :   p=Pick off   H=Harmonics

e:--------------------------------------------------------------------------------------------------------
b:--------------------------------------------------------------------------------------------------------
g:--------------------------7-------------------7---7------------------------7----------------------------
d:--------------------------7-------------------7---7-------x2------7------7------------------------------
a:------7-p--6-p---5----5---7-p-6-p-5---5---5----------------7------5-------------------------------------
e:---------------------------------------------------------------------5----------------------------------
Faith!
I'm supposed to get this right, not so?
But I sold the pressure and fuelled the fire.
Keep playing the worldly games and you keep missing the goals you aim man.
Fuel the fire.


         H               H            H          H        H          H      H                   H      H                  H
e:-----------------------------------12------------------------------12-------------------------------------------------------
b:-----------------------12-------------------------------12------------------------------------------------------------------
g:----------------------------------------------------------------------------------------------------------------------------
d:-------12--------------------------------------12------------------------12--------------------------12---------------------
a:----------------------------------------------------------------------------------------------------------------------------
e:----------------------------------------------------------------------------------------------12------------------------12--
I'm supposed to get this right.
Your supposed to stay in sight.
And no one does it better.
I'm supposed to get this right.
Your supposed to paint the night.
And no one does it better.

Chorus
Braced me,
And then He changed me.
But �. He promised the world!

Verse 2
But the mind don't stall.
I won't give you peace.
Fuel the fire.
But the book says:
Why don't you just ask?
Stop mocking what you dare not task.
You fuel the fire.



---------------------------
This file passed through:
       Absolute Tabs
   http://www.tabs.co.za
---------------------------