Bass tablature for Wicked Ways by The Cheap Bad Habits (tabbed by Jed)
#----------------------------------PLEASE NOTE---------------------------------#
#This file is the author's own work and represents their interpretation of the #
#song. You may only use this file for private study, scholarship, or research. #
#------------------------------------------------------------------------------##

WICKED WAYS

INTRO

G-------------------------------------------------------------------------
D-------------------------------------------------------------------------
A-------------------------------------------------------------------------
E--0-0-3-0-5-0-3-0--0-3-0-5-0-3----------------------------------  X2

MAIN RIFF
G-------------------------------------------------------------------------
D-------------------------------------------------------------------------
A-------------------------------------------------------------------------
E--0-0-3-0-5-0-3-0--0-3-0-5-0-3----------------------------------  X4

G-------------------------------------------------------------------------
D-------------------------------------------------------------------------
A--0-0-3-0-5-0-3-0--0-3-0-5-0-3----------------------------------
E-------------------------------------------------------------------------  X2

G-------------------------------------------------------------------------
D-------------------------------------------------------------------------
A-------------------------------------------------------------------------
E--0-0-3-0-5-0-3-0--0-3-0-5-0-3----------------------------------  X2

G------------------------------------------------------------------------
D------------------------------------------------------------------------
A--55555555--33333333-----------------------------------------
E------------------------------------------------------------------------

G-------------------------------------------------------------------------
D-------------------------------------------------------------------------
A-------------------------------------------------------------------------
E--0-0-3-0-5-0-3-0--0-3-0-5-0-3----------------------------------  X1

CHORUS
G-------------------------------------------------------------------------
D-------------------------------------------------------------------------
A-------------------------------------------------------------------------
E—00-0----00-0----00-0----00-0-----------------------------------

SONG STRUCTURE
• INTRO
• MAIN RIFF
• CHORUS
• INTRO
• MAIN RIFF
• CHORUS
• INTRO
• MAIN RIFF (SOLO)
• CHORUS (SOLO)
• INTRO
• MAIN RIFF
• CHORUS
• END


LYRICS

I’m gonna lose myself out on the road tonight
I feel like something’s wrong, so I’m hitching a ride
You’re a wicked girl, you got me in too deep
Another roll of the dice and we’re playing for keeps

You and your wicked ways
Are leading me astray
You’re gonna do me wrong
The right way

I try remember a time, before I lost my way
Maybe I could get back, but it’s hard to say
Where the one of us stops and the other begins
Like two lovers entwined, getting lost in our sins

You and your wicked ways
Are leading me astray
You’re gonna do me wrong
The right way

I’m gonna lose myself out on the road tonight
Gotta get away from this beast inside
Aint no use to run, I know I’ll never get far
On the road tonight, onwards into the dark

You and your wicked ways
Are leading me astray
You’re gonna do me wrong
The right way

---------------------------
This file passed through:
       Absolute Tabs
   http://www.tabs.co.za
---------------------------