Guitar tablature for Tied My Hands by Saron Gas
#----------------------------------PLEASE NOTE---------------------------------#
#This file is the author's own work and represents their interpretation of the #
#song. You may only use this file for private study, scholarship, or research. #
#------------------------------------------------------------------------------##

Date: Tue, 18 Dec 2001 17:05:01 +0200
From: g01g4269@campus.ru.ac.za
Subject: s/saron_gas/tied_my_hands.tab

Song: "Tied my hands" - (extract from the debut album
"Fragile")
Band: Saron Gas
Tabbed By: Alex G.

Another great song from the south african band, Saron Gas !
Such a simple song but which shines by its sobriety and
by its raw aspect !
It kicks some serious ass !

Grab your guitar and jam.


Standard tuning:
----------------

EADGBe

Chord :
--------

C  

Intro - Verse : (Main Theme)
--------------
Palm muting, electric guitar w/ slight distortion and chorus  

                 Can you remember when.....
e|-------------------------------------------------------------
b|-------------------------------------------------------------
g|---------0--------------0------------0-------------0---------
d|-------9---9----------9---9--------9---9---------9---9-------
a|----10-------10---10-------10---10-------10---10-------10----
E|--0-------------0-------------8-------------8-------------0--



Then play the the verse and chorus just by strumming the chord and add
more distortion !

Enjoy !   



---------------------------
This file passed through:
       Absolute Tabs
   http://www.tabs.co.za
---------------------------