Bass tablature for French Kiss by The Cheap Bad Habits (tabbed by Jed)
#----------------------------------PLEASE NOTE---------------------------------#
#This file is the author's own work and represents their interpretation of the #
#song. You may only use this file for private study, scholarship, or research. #
#------------------------------------------------------------------------------##

FRENCH KISS

http://www.youtube.com/watch?v=lWYto8A7Ttk&feature=plcp
http://www.reverbnation.com/thecheapbadhabits#!/artist/artist_songs/1393410

INTRO
G-------------------------------------------------------------------------
D-------------------------------------------------------------------------
A----3-5------------------------------------------------------------------
E--5------5--5--5-5-5-5--3-5------------------------------------------  X2

MAIN RIFF
G-------------------------------------------------------------------------
D-------------------------------------------------------------------------
A----3-5------------------------------------------------------------------
E--5------5--5--5-5-5-5--3-5------------------------------------------  X4

G-------------------------------------------------------------------------
D-------------------------------------------------------------------------
A-------------------------------------------------------------------------
E--5-4-3-0--0--0-0--0-0--0----0-3-4-5--5--5-5--5-5---3-5-3---

CHORUS
G---------------------------------------------------------------------------
D---------------------------------------------------------------------------
A -- ------5-s-7-7-7-7-7-7-7-7-5-5-5-5-5-5- 3----------------------
E--3-5-3----------------------------------------------5--5-5-5-5-5-3-5- X2

SOLO
G-------------------------------------------------------------------------
D-------------------------------------------------------------------------
A-------------------------------------------------------------------------
E--5-4-3-0--0--0-0--0-0--0----0-3-4-5--5--5-5--5-5---3-5----  X8

SONG STRUCTURE
• INTRO
• MAIN RIFF
• CHORUS
• INTRO
• MAIN RIFF
• CHORUS
• SOLO
• INTRO
• MAIN RIFF
• CHORUS
• END


LYRICS

French kiss I like it like this
One touch and I’m in my bliss
Makes me crazy when you bite my lip
Touch your body with my fingertips

Little lady, mademoiselle  
French kiss me and I’m under you spell

You’re burning me up just like a solar eclipse // the lights go out just like a solar eclipse
When your French kiss hits my lips

French kiss you drive me wild
Gypsy woman you’re my kind
Hot blooded with a Spanish smile
Something tells me this could take all night

Little lady, mademoiselle  
French kiss me and I’m under you spell

That feeling’s coming down over me like a ton of bricks
When your French kiss hits my lips

French kiss mon Cherie amor
You’re the one that I adore
I’ll make you mine baby one of these days
You move your hips in mysterious ways

Little lady, mademoiselle  
French kiss me and I’m under you spell

Have you got a little something for me in your bag of tricks
When your French kiss hits my lips

---------------------------
This file passed through:
       Absolute Tabs
   http://www.tabs.co.za
---------------------------