Guitar tablature for I Can't Believe by Downfall (tabbed by Nevay)
#----------------------------------PLEASE NOTE---------------------------------#
#This file is the author's own work and represents their interpretation of the #
#song. You may only use this file for private study, scholarship, or research. #
#------------------------------------------------------------------------------##

INTRO
gt1+gt2 (dist)
4|-0-1p0-1p0-00-0-1p0-1p0-3-|
5|-0-1p0-1p0-00-0-1p0-1p0-3-|
6|-0-1p0-1p0-00-0-1p0-1p0-3-| x2
             .

4|-0-1p0-1p0-00-0-1p0-1p0-3--0-1p0-1p0-00m-|
5|-0-1p0-1p0-00-0-1p0-1p0-3--0-1p0-1p0-00m-|
6|-0-1p0-1p0-00-0-1p0-1p0-3--0-1p0-1p0-00m-|
             .                         .

PRE VERSE  (gt1 dist)
5|----55----55----5-----55--5-|
6|-00----00----00----00----0--|
   ..    ..    ..    ..    .

VERSE (gt1 dist)
5|----55----55----5-----55----55----6-----55----55----5-----55----55----8-|
6|-00----00----00----00----00----00----00----00----00----00----00----00---|x2
   ..    ..    ..    ..    ..    ..    ..    ..    ..    ..    ..    ..

(gt1+gt2 dist)
3|----------------<7>-----------------8-----------------<7>-----------------10-|
4|-00-60--00-60--0-----00-60--00-60--07--00-60--00-60--0-----00-60--00-60--09--|
5|-00-60--00-60--0-----00-60--00-60--06--00-60--00-60--0-----00-60--00-60--08--|
6|-00-60--00-60--0-----00-60--00-60--0---00-60--00-60--0-----00-60--00-60--0---|
   ..     ..     .     ..     ..     .   ..     ..     .     ..     ..     .

3|----------------<7>-----------------8-----------------<7>-------------|
4|-00-60--00-60--0-----00-60--00-60--07--00-60--00-60--0-----00-60--00m-|
5|-00-60--00-60--0-----00-60--00-60--06--00-60--00-60--0-----00-60--00m-|
6|-00-60--00-60--0-----00-60--00-60--0---00-60--00-60--0-----00-60--00m-|
   ..     ..     .     ..     ..     .   ..     ..     .     ..     .

CHORUS (gt1+gt2 dist) x2
4|-0-1p0-1p0-00-0-1p0-1p0-3-|  |-10---7---7-7---7--7--|
5|-0-1p0-1p0-00-0-1p0-1p0-3-|  |-8----7 h 8-8 h 10-10-|
6|-0-1p0-1p0-00-0-1p0-1p0-3-|x2|-8----7---7-7---7--7--|
             .

4|-0-1p0-1p0-00-0-1p0-1p0-3--0-1p0-1p0-00m-|
5|-0-1p0-1p0-00-0-1p0-1p0-3--0-1p0-1p0-00m-|
6|-0-1p0-1p0-00-0-1p0-1p0-3--0-1p0-1p0-00m-|
             .                         .

VERSE
CHORUS
BRIDGE (gt1 dist)x2
4|-00----00----00----00----01----00----00----00----00--01-01-|
5|-00----00----00----00----01----00----00----00----00--01-01-|
6|-00----00----00----00----01----00----00----00----00--01-01-|
   ..    ..    ..    ..    .     ..    ..    ..    ..  .  .

PRE CHORUS (gt1+gt2 dist)
4|-0-1p0-1p0-00-0-1p0-1p0-3-|  
5|-0-1p0-1p0-00-0-1p0-1p0-3-|  
6|-0-1p0-1p0-00-0-1p0-1p0-3-|x2
             .

CHORUS (gt1+gt2 dist) x2
4|-0-1p0-1p0-00-0-1p0-1p0-3-|  |-10---7---7-7---7--7--|
5|-0-1p0-1p0-00-0-1p0-1p0-3-|  |-8----7 h 8-8 h 10-10-|
6|-0-1p0-1p0-00-0-1p0-1p0-3-|x2|-8----7---7-7---7--7--|
             .

4|-0-1p0-1p0-00-0-1p0-1p0-3-|  |-0-1p0-1p0-00m-|
5|-0-1p0-1p0-00-0-1p0-1p0-3-|  |-0-1p0-1p0-00m-|
6|-0-1p0-1p0-00-0-1p0-1p0-3-|x3|-0-1p0-1p0-00m-|
             .                         .

---------------------------
This file passed through:
       Absolute Tabs
   http://www.tabs.co.za
---------------------------