Guitar tablature for Welkom Terug by Jack Parrow (tabbed by G3752)
#----------------------------------PLEASE NOTE---------------------------------#
#This file is the author's own work and represents their interpretation of the #
#song. You may only use this file for private study, scholarship, or research. #
#------------------------------------------------------------------------------##

Artist: Jack Parrow ft. Pierre Greef

Vir vrae/Koreksies e-mail my by gabriel3752@gmail.com

Volg my op Twitter! @GabrielRoux3752

Guitar 1: Acoustic

Guitar 2: acoustic

Guitar 3: Clean Electric

Sleutel:
!   -   Slap
/   -   Slide
~   -   Let ring

Chords:
    A    Bm    F#m    D
e|--0-----2-----2-----2----|
B|--2-----3-----2-----3----|
G|--2-----4-----2-----2----|
D|--2-----4-----4-----0----|
A|--0-----2-----4----------|
E|--------------2----------|

______________________________________________________________________________________________

Intro/Chorus: 00:00-00.33
_____________________________________________________________________________________________
A                      
Hey daar welkom terug

             Bm
ons het jou lank genoeg gemis

          F#m
was dit alleen daar?

          D
was daar kleur daar?

            A
of was dit swart en wit?

           Bm
was dit ongeskik?

          F#m
was dit alleen daar?

          D
was daar kleur daar?

______________________________________________________________________________________________

Verse 1: 00:33-01:26
_____________________________________________________________________________________________

Riff 1:

e|----------------------------------------------------------------|
B|----------------------------------------------------------------|
G|-------4----------------4--------------4---------------2--------|
D|---2-------2--2----2--------2--2---2-------2--2----6-------6--6-|
A|-0---0-----------0---0-----------0---0-----------4---4----------|
E|----------------------------------------------------------------|
         !                !              !               !        
                                                           
e|----------------------------------------------------------------|
B|-------------------------------------------------------5--------|
G|-----------------------------------------------------------6--6-|
D|-------6----------------6--------------6-----------6------------|
A|---4-------4--4----4--------4--4---4-------4--4--4---4----------|
E|-2---2-----------2---2-----------2---2--------------------------|
         !                !              !               !
Riff 2:

e|----------------------------------------------------------------|
B|----------------------------------------------------------------|
G|-------4----------------4--------------4---------------2--------|
D|---2-------2--2----2--------2--2---2-------2--2----6-------6--6-|
A|-0---0-----------0---0-----------0---0-----------4---4----------|
E|----------------------------------------------------------------|
           !                !              !               !        
                                                           
e|----------------------------------------------------------------|
B|----------------------------------------------------------------|
G|------------------------------------------------------/11-------|
D|-------6----------------6--------------6--------------/9--------|
A|---4-------4--4----4--------4--4---4-------4--4-----------------|
E|-2---2-----------2---2-----------2---2--------------------------|
           !                !              !

Volgorde van verse 1:   Riff 1  x1
                        Riff 2  x1
                        Riff 1  x3

Guitar 3: 00:59-01:26

Riff 3:
e|-------------------------|
B|----7~-------------------|
G|-------------9~-----6~---|
D|----------7~-------------|
A|-------------------------|
E|-------------------------|

______________________________________________________________________________________________

Chorus: 01:26-01:47

_____________________________________________________________________________________________

Guitar 1:

e|------0-----0-----0-----0----0-----0-----0-----0-----2-----2-----2-----0--|
B|--------2-----2-----2----------2-----2-----2-----------2-----2-----2------|
G|---2------2-----2-----2-----2----2-----2-----2-----2-----2-----2-----2----|
D|--------------------------------------------------------------------------|
A|-0------------------------2-----------------------------------------------|
E|-------------------------------------------------2------------------------|



e|-----0-----0-----0-----0---|
B|-------2-----2-----2-------|
G|---2-----2-----2-----2-----|
D|-0-------------------------|
A|---------------------------|
E|---------------------------|



e|------0----4/5----0-----0----0-----0-----0-----0----2-----2-----2-----0--|
B|--------2-----------2----------2-----2-----2----------2-----2-----2------|
G|---2------2----2------2-----2----2-----2-----2----2-----2-----2-----2----|
D|-------------------------------------------------------------------------|
A|-0------------------------2----------------------------------------------|
E|-----------------------------------------------2-------------------------|



e|-----0-----0-----0-----0---|
B|-------2-----2-----2-------|
G|---2-----2-----2-----2-----|
D|-0-------------------------|
A|---------------------------|
E|---------------------------|

Guitar 2:

A                      
Hey daar welkom terug

             Bm
ons het jou lank genoeg gemis

          F#m
was dit alleen daar?

          D
was daar kleur daar?

            A
of was dit swart en wit?

           Bm
was dit ongeskik?

          F#m
was dit alleen daar?

          D
was daar kleur daar?

_____________________________________________________________________________________________

Verse 2: 01:47 - 02:10

_____________________________________________________________________________________________

Guitar 1: Palm muted

A
Ek's blykbaar klaar verlos deur druppels op my kop

         Bm
maar my hande voel gebonde en ek sukkel om te stop

       F#m
die klokkies van my entjies verbrand klaar my tyd

          D
en die voëltjies by my vensters het allankal ophou fluit

    A
My klere is in bondels en daar's niemand wat wil stryk

         Bm
en die duiwel op my grondpad dra haar blond gedyede pruik

        F#m
haar vingernaels is skerp en bloedrooi mooi gepaint

          D
en haar hande wat soos slange lyk het my lankal klaar gegryp


_____________________________________________________________________________________________

Verse 2 Vervolg: 02:10 - 02:52

_____________________________________________________________________________________________

Repeat verse 1

_____________________________________________________________________________________________

Chorus: 02:52 - 03:43

_____________________________________________________________________________________________

Repeat chorus x2


_____________________________________________________________________________________________

Synth outro: 03:34 - 03:58

_____________________________________________________________________________________________


A Bm F#m D

---------------------------
This file passed through:
       Absolute Tabs
   http://www.tabs.co.za
---------------------------