Guitar tablature for Gisteraand by Dans Dans Lisa (tabbed by G3752)
#----------------------------------PLEASE NOTE---------------------------------#
#This file is the author's own work and represents their interpretation of the #
#song. You may only use this file for private study, scholarship, or research. #
#------------------------------------------------------------------------------##

Vir enige vrae/criticism/corrections email my by gabriel3752@yahoo.com

Sleutel:
* : natural harmonic
h : hammer-on
p : pull-of
/ : slide up
\ : slide down

Ek sê Ahoy Daar! Ek is op Twitter! So maak 'n plan en volg die man @GabrielRoux3752

Ek WEET dit is nie nodig om alles in bar-chords te speel nie dit klink net beter

   D  Bm   A   A7  G
E|-5-|-2-|-5-|-5-|-3-|
B|-7-|-3-|-5-|-5-|-3-|
G|-7-|-4-|-6-|-6-|-4-|
D|-7-|-4-|-7-|-5-|-5-|
A|-5-|-2-|-7-|-7-|-5-|
e|---|---|-5-|-5-|-3-|

[Intro]

{Guitar 1}

E|-----------------------|
B|--------------*7-------|
G|-------*7-------*7-----|  
D|---*7-----*7-----------| Repeat
A|-----------------------|
e|-----------------------|

{Guitar 2}

D-G-Bm-A-D

[verse 1]

    D                 
Gisteraand het die wêreld vergaan
    G
Vanoggend het ek wakker geword

En ek het steeds bestaan
    Bm                                  A
Ek dink dit was my skuld , ek dink dit was
                    D
en die's my tweede kans

[Verse 2]

          D
Dit was anders as gewoonlik

Die nag het om die liggies gedans
  G
Almal was vrolik, mense het mekaar verstaan
           Bm                     A
daar was musiek soos stilte daar was
                            D
en dit was mooi en ek was daar

[Chorus]

     D                             A7-Bm
Gisteraand het die wereld vergaan

*Gisteraand*
    Bm                             D-G                      
Gisteraand het die wêreld vergaan

*Die wêreld vergaan*
     G                                       D
Gisteraand het die wêreld vergaan en ek was daar

[Verse 3]
    D
Vanoggend was die mooiste

Alles het meteens bedaar
    G
ek het weer 'n kans gestaan

soos die son opkom het die reën geval
       Bm
Word wakker, word wakker,
A                                   D
alles is nog soos dit was en ons is hier

[Chorus]

     D                             A7-Bm
Gisteraand het die wereld vergaan

*Gisteraand*
    Bm                             D-G                      
Gisteraand het die wêreld vergaan

*Die wêreld vergaan*
     G                                       D
Gisteraand het die wêreld vergaan en ek was daar

[solo]
      D                     Bm                   G
E|------------------------------------------------------|
B|------------------------------------------------------|
G|---------------------------------------------------7~-|  
D|----------------------7/9-7------------7/9-7-7h9------|
A|-------5~-X-7p5---5~--------9p7-9--7-9----------------|
e|-5-5h7----------7-------------------------------------|

                            D
E|-------------------------------------|
B|-------------------------------------|
G|-X-X-7h9-7~--7/9-7-------------------|  
D|---------------------9/12-12---------|
A|-------------------------------------|
e|-------------------------------------|

[Chorus]

     D                             A7-Bm
Gisteraand het die wereld vergaan

*Gisteraand*
    Bm                             D-G                      
Gisteraand het die wêreld vergaan

*Die wêreld vergaan*
     G                                       D
Gisteraand het die wêreld vergaan en ek was daar

[Outro]

     D                             A7-Bm
Gisteraand het die wereld vergaan

                                    D-G
Gisteraand het die wereld vergaan

                                              D
Gisteraand het die wêreld vergaan en ek was daar

---------------------------
This file passed through:
       Absolute Tabs
   http://www.tabs.co.za
---------------------------