Guitar tablature for Broken by Seether
#----------------------------------PLEASE NOTE---------------------------------#
#This file is the author's own work and represents their interpretation of the #
#song. You may only use this file for private study, scholarship, or research. #
#------------------------------------------------------------------------------##

Artist: Seether
Album: Disclaimer
  Song: Broken
Tabber: Brad

This is such a cool tune. Hope you can read and understand my tab

Just keep a look out of what guitar 1 plays and guitar plays so that you don't
get confused and think i can't write tabs. You'll probably think that anyway.

Intro
Guitar 1                          
|-------------------------|      
|-------------------------|      
|-----9-------5-5-5-5-5-4-|      
|-----9-------5-5-5-5-5-4-|x2    
|--7-----7----3-3-3-3-3-2-|      
|7---------7--3-3-3-3-3-2-|      

Guitar 2
|2h3-----3--3--------3---3----|
|----0---------0-------0---0--|
|------0---------0------------|
|-----------0------0----------|x2
|-----------------------------|
|-----------------------------|

Guitar 1
|---------------------------------------|
|---------------------------------------|
|-----9-------5-5-5-5-5-7-7-7-7-7-7-7-7-|
|-----9-------5-5-5-5-5-7-7-7-7-7-7-7-7-|
|--7-----7----3-3-3-3-3-5-5-5-5-5-5-5-5-|
|7---------7--3-3-3-3-3-5-5-5-5-5-5-5-5-|

Guitar 2
|2h3-----3--3--------3---3-------------------------------------|
|----0---------0-------0---0---5h7-----8p7-----5h7-----8p7-----|
|------0---------0-----------------0-------0-------0-------0---|
|-----------0------0-----------0-----0---------0-----0-------0-|
|--------------------------------------------------------------|
|--------------------------------------------------------------|

Verse1
Guitar1
|-------------------------|
|-------------------------|
|-----9-------5-5-5-5-5-4-|
|-----9-------5-5-5-5-5-4-|x2
|--7-----7----3-3-3-3-3-2-|
|7---------7--3-3-3-3-3-2-|

Guitar 2
|2h3-----3--3--------3---3----|
|----0---------0-------0---0--|
|------0---------0------------|
|-----------0------0----------|x2
|-----------------------------|
|-----------------------------|

Guitar 1
|---------------------------------------|
|---------------------------------------|
|-----9-------5-5-5-5-5-7-7-7-7-7-7-7-7-|
|-----9-------5-5-5-5-5-7-7-7-7-7-7-7-7-|
|--7-----7----3-3-3-3-3-5-5-5-5-5-5-5-5-|
|7---------7--3-3-3-3-3-5-5-5-5-5-5-5-5-|

Guitar 2
|2h3-----3--3--------3---3-------------------------------------|
|----0---------0-------0---0---5h7-----8p7-----5h7-----8p7-----|
|------0---------0-----------------0-------0-------0-------0---|
|-----------0------0-----------0-----0---------0-----0-------0-|
|--------------------------------------------------------------|
|--------------------------------------------------------------|

Guitar 1
|-------------------------|
|-------------------------|
|-----9-------5-5-5-5-5-4-|
|-----9-------5-5-5-5-5-4-|x2
|--7-----7----3-3-3-3-3-2-|
|7---------7--3-3-3-3-3-2-|

Guitar 2
|2h3-----3--3--------3---3----|
|----0---------0-------0---0--|
|------0---------0------------|
|-----------0------0----------|x2
|-----------------------------|
|-----------------------------|

Guitar 1
|---------------------------------------|
|---------------------------------------|
|-----9-------5-5-5-5-5-7-7-7-7-7-7-7-7-|
|-----9-------5-5-5-5-5-7-7-7-7-7-7-7-7-|
|--7-----7----3-3-3-3-3-5-5-5-5-5-5-5-5-|
|7---------7--3-3-3-3-3-5-5-5-5-5-5-5-5-|

Guitar 2
|2h3-----3--3--------3---3-------------------------------------|
|----0---------0-------0---0---5h7-----8p7-----5h7-----8p7-----|
|------0---------0-----------------0-------0-------0-------0---|
|-----------0------0-----------0-----0---------0-----0-------0-|
|--------------------------------------------------------------|
|--------------------------------------------------------------|

Chorus1
|-----------------------------------|
|-----------------------------------|
|5---5--5-5--5---5/4--4--4-4-4-4----|
|5---5--5-5--5---5/4--4--4-4-4-4----|x8
|3---3--3-3--3---3/2--2--2-2-2-2----|
|3---3--3-3--3---3/2--2--2-2-2-2----|

Interlude
Guitar 1
|-------------------------|
|-------------------------|
|-----9-------5-5-5-5-5-4-|
|-----9-------5-5-5-5-5-4-|x2
|--7-----7----3-3-3-3-3-2-|
|7---------7--3-3-3-3-3-2-|

Guitar 2
|2h3-----3--3--------3---3----|
|----0---------0-------0---0--|
|------0---------0------------|
|-----------0------0----------|x2
|-----------------------------|
|-----------------------------|

Guitar 1
|---------------------------------------|
|---------------------------------------|
|-----9-------5-5-5-5-5-7-7-7-7-7-7-7-7-|
|-----9-------5-5-5-5-5-7-7-7-7-7-7-7-7-|
|--7-----7----3-3-3-3-3-5-5-5-5-5-5-5-5-|
|7---------7--3-3-3-3-3-5-5-5-5-5-5-5-5-|

Guitar 2
|2h3-----3--3--------3---3-------------------------------------|
|----0---------0-------0---0---5h7-----8p7-----5h7-----8p7-----|
|------0---------0-----------------0-------0-------0-------0---|
|-----------0------0-----------0-----0---------0-----0-------0-|
|--------------------------------------------------------------|
|--------------------------------------------------------------|

Verse2
|-------------------------|
|-------------------------|
|-----9-------5-5-5-5-5-4-|
|-----9-------5-5-5-5-5-4-|x2
|--7-----7----3-3-3-3-3-2-|
|7---------7--3-3-3-3-3-2-|

Guitar 2
|2h3-----3--3--------3---3----|
|----0---------0-------0---0--|
|------0---------0------------|
|-----------0------0----------|x2
|-----------------------------|
|-----------------------------|

|---------------------------------------|
|---------------------------------------|
|-----9-------5-5-5-5-5-7-7-7-7-7-7-7-7-|
|-----9-------5-5-5-5-5-7-7-7-7-7-7-7-7-|
|--7-----7----3-3-3-3-3-5-5-5-5-5-5-5-5-|
|7---------7--3-3-3-3-3-5-5-5-5-5-5-5-5-|

Guitar 2
|2h3-----3--3--------3---3-------------------------------------|
|----0---------0-------0---0---5h7-----8p7-----5h7-----8p7-----|
|------0---------0-----------------0-------0-------0-------0---|
|-----------0------0-----------0-----0---------0-----0-------0-|
|--------------------------------------------------------------|
|--------------------------------------------------------------|

Guitar 1
|-------------------------|
|-------------------------|
|-----9-------5-5-5-5-5-4-|
|-----9-------5-5-5-5-5-4-|x2
|--7-----7----3-3-3-3-3-2-|
|7---------7--3-3-3-3-3-2-|

Guitar 2
|2h3-----3--3--------3---3----|
|----0---------0-------0---0--|
|------0---------0------------|
|-----------0------0----------|x2
|-----------------------------|
|-----------------------------|

Guitar 1
|---------------------------------------|
|---------------------------------------|
|-----9-------5-5-5-5-5-7-7-7-7-7-7-7-7-|
|-----9-------5-5-5-5-5-7-7-7-7-7-7-7-7-|
|--7-----7----3-3-3-3-3-5-5-5-5-5-5-5-5-|
|7---------7--3-3-3-3-3-5-5-5-5-5-5-5-5-|

Guitar 2
|2h3-----3--3--------3---3-------------------------------------|
|----0---------0-------0---0---5h7-----8p7-----5h7-----8p7-----|
|------0---------0-----------------0-------0-------0-------0---|
|-----------0------0-----------0-----0---------0-----0-------0-|
|--------------------------------------------------------------|
|--------------------------------------------------------------|

Chorus2
|-----------------------------------|
|-----------------------------------|
|5---5--5-5--5---5/4--4--4-4-4-4----|
|5---5--5-5--5---5/4--4--4-4-4-4----|x8
|3---3--3-3--3---3/2--2--2-2-2-2----|
|3---3--3-3--3---3/2--2--2-2-2-2----|

This is played right before solo
|--------12.h--|
|-----12.h-----|
|--12.h--------|
|--------------|
|--------------|
|--------------|

Solo
Guitar 1
|------------------------------0-------|
|----------------------------0---0-----|
|------------0-------------------------|
|----------0-----4--4h5p4--5-------5---|
|----0h2/5-----------------------------|
|0h5-----------------------------------|

Guitar 2
|2h3-----3--3--------3---3----|
|----0---------0-------0---0--|
|------0---------0------------|
|-----------0------0----------|x2
|-----------------------------|
|-----------------------------|

Guitar 1
|-----------------------------------------|
|-----------------------------------------|
|------------0----------------7-5-4-2h4-44|
|----------0-----4--4h5p4-5/7-------------|
|----0h2/5--------------------------------|
|0h5--------------------------------------|

Guitar 2
|2h3-----3--3--------3---3-------------------------------------|
|----0---------0-------0---0---5h7-----8p7-----5h7-----8p7-----|
|------0---------0-----------------0-------0-------0-------0---|
|-----------0------0-----------0-----0---------0-----0-------0-|
|--------------------------------------------------------------|
|--------------------------------------------------------------|

Guitar 1
|-----------------------------------0--|
|---------------------------------0---0|
|------------0-------------------------|
|----------0-----4--4h5p4-5/7-5--------|
|----0h2/5----------------------7------|
|0h5-----------------------------------|

Guitar 2
|2h3-----3--3--------3---3----|
|----0---------0-------0---0--|
|------0---------0------------|
|-----------0------0----------|x2
|-----------------------------|
|-----------------------------|

Guitar 1
|-----------------------------------------|
|-----------------------------------------|
|------------0----------------7-5-4-2h4-44|
|----------0-----4--4h5p4-5/7-------------|
|----0h2/5--------------------------------|
|0h5--------------------------------------|

Guitar 2
|2h3-----3--3--------3---3-------------------------------------|
|----0---------0-------0---0---5h7-----8p7-----5h7-----8p7-----|
|------0---------0-----------------0-------0-------0-------0---|
|-----------0------0-----------0-----0---------0-----0-------0-|
|--------------------------------------------------------------|
|--------------------------------------------------------------|

Chorus3
|-----------------------------------|
|-----------------------------------|
|5---5--5-5--5---5/4--4--4-4-4-4----|
|5---5--5-5--5---5/4--4--4-4-4-4----|x8
|3---3--3-3--3---3/2--2--2-2-2-2----|
|3---3--3-3--3---3/2--2--2-2-2-2----|

Outro Its the same as intro just picked differently

Guitar 1
|-------------------------|
|-------------------------|
|-----9-------5-5-5-5-5-4-|
|-----9-------5-5-5-5-5-4-|x2
|--7-----7----3-3-3-3-3-2-|
|7---------7--3-3-3-3-3-2-|

Guitar 2
|12.h--------------------------------------------|
|---12.h----------------------------7.h----------|
|-------------------------------7.h--------------|
|------------------------------------------------|
|------------------------------------------------|
|------------------------------------------------|

Guitar 1
|---------------------------------------|
|---------------------------------------|
|-----9-------5-5-5-5-5-7-7-7-7-7-7-7-7-|
|-----9-------5-5-5-5-5-7-7-7-7-7-7-7-7-|
|--7-----7----3-3-3-3-3-5-5-5-5-5-5-5-5-|
|7---------7--3-3-3-3-3-5-5-5-5-5-5-5-5-|

Guitar 2
|12-----------------------------7.h---------------|
|---12--------------------------------------------|
|------------------------------------7.h-------7.h|
|-----------------------------------------7.h-----|
|-------------------------------------------------|
|-------------------------------------------------|

Guitar 1
|-------------------------|
|-------------------------|
|-----9-------5-5-5-5-5-4-|
|-----9-------5-5-5-5-5-4-|x2
|--7-----7----3-3-3-3-3-2-|
|7---------7--3-3-3-3-3-2-|

Guitar 2
|12-----------------------------------------------|
|---12--------------------------------------------|
|------------------------------------12.h---------|
|-------------------------------12.h--------------|
|-------------------------------------------------|
|-------------------------------------------------|

Guitar 1
|---------------------------------------|
|---------------------------------------|
|-----9-------5-5-5-5-5-7-7-7-7-7-7-7-7-|
|-----9-------5-5-5-5-5-7-7-7-7-7-7-7-7-|
|--7-----7----3-3-3-3-3-5-5-5-5-5-5-5-5-|
|7---------7--3-3-3-3-3-5-5-5-5-5-5-5-5-|

Guitar 2
|12-----------------------------7.h---------------|
|---12--------------------------------------------|
|------------------------------------7.h-------7.h|
|-----------------------------------------7.h-----|
|-------------------------------------------------|
|-------------------------------------------------|

|-7---------------------|
|--7--------------------|
|---9-------------------|
|----9------------------|
|-----7-----------------|
|------7----------------|

Yeah i know this is probably a Shitty tab, but hey atleast i tried to tab it,
I know that my strumming is off but all you gotta do is listen to the song,
try and duplicate Shaun's strumming OR YOU COULD MAKE UP YOUR OWN STRUMMING.

Anyway please let me know what ya think of the tab, and please post me corrections

PLEASE PLEASE PLEASE PLEASE VISIT SEETHER'S WEBSITE

www.seether.com

AND PLEASE DO YOURSELF A HUGE FAVOUR AND BUY THEIR ALBUM, IT'S CALLED DISCLAIMER

THANKS
BRAD

---------------------------
This file passed through:
       Absolute Tabs
   http://www.tabs.co.za
---------------------------