Guitar tablature for Breathing by Prime Circle (tabbed by kunuk)
#----------------------------------PLEASE NOTE---------------------------------#
#This file is the author's own work and represents their interpretation of the #
#song. You may only use this file for private study, scholarship, or research. #
#------------------------------------------------------------------------------##

Breathing - Prime Circle
Album: Jekyll & Hyde



Hot off the recent platinum status of their last album - All or
Nothing, Prime Circle is poised to do it again. This is for those
diehard fans out there looking to get a sneak peak and learn their
first single before their new album - Jekyll & Hyde is officially
released this September...enjoy!

This song is basically four chords with a hint of a fifth. There is a
combination of straight chord play, with strong guitar presence...even
a string section. If you get in a pinch, you could always substitute
the Dm for the F as their share many of the same notes.

Here are the chords used in the song for quick reference:
      A7   Bb    C    Dm     F     A7-bar Bb-bar C-bar  Dm-bar  F-bar      
e:---0-----------0-----1-----1---|---5------1------3------5------1---
B:---1-----3-----1-----3-----1---|---5------3------5------6------1---
G:---0-----3-----0-----2-----2---|---6------3------5------7------2---
D:---2-----3-----2-----0-----3---|---5------3------5------7------3---
A:---0-----1-----3-----------3---|---7------1------3------5------3---
E:-------------------------------|---5---------------------------1---

Have fun! Please let me know if there any changes/suggestions you have
to make the tab better,
Your Friendly Neighbourhood Kunuk – kunuk@rocketmail.com

======================================================================

INTRO:
e:-----------------------------------------|
B:-----------------------------------------|
G:-----------------------------------------|
D:----------02-2-2-2-0----------02-2-2-2-0-|
A:-3-3-3-3-3-----------3-3-3-3-3-----------|
E:-----------------------------------------|


VERSE1:
-- The same pattern from the intro section leads right into the first
half of the first verse. For the second half of this verse, you can
either keep repeating the same pattern or play the chords below

e:---------------------------------------------------------------|
B:---------------------------------------------------------------|
G:---------------------------------------------------------------|
D:----------02-2-2-2-0----------02-2-2-2-0----------02-2-2-2-2-3-|
A:-3-3-3-3-3-----------3-3-3-3-3-----------3-3-3-3-3-------------|
E:---------------------------------------------------------------|

e:------------------|
B:------------------|
G:------------------|
D:-0-0-0-0-0-0-0-0--|
A:------------------|
E:------------------|

Step back, stop the world
Stop the time is always running
To try to catch my breath
To try to take it in
Unfold and calculate
Concentrate and reach for something

              F
Here’s to the good times, the bad times
    C
The times that could have been
       Dm
To the wrong times, the right times
  A7
I know we’ll breathe again
     F      C
Tell them
     Dm
Tell them


CHORUS:
-- In this section there is the option of simply strumming the chords,
or cranking up the distortion and playing arpeggios along with the
lead guitar

   F                 C                 Dm                A7
e:------1---------|---------1-------|---------3-------|------5-------|
B:----1---1-------|-------3---3-----|-------4---4-----|----5---5-----|
G:--2-------2-----|-----3-------3---|-----5-------5---|--6-------6---|
D:------------3---|---3-----------3-|---5-----------5-|-----------7--|
A:--------------3-|-1---------------|-3---------------|------------7-|
E:-1--------------|-----------------|-----------------|-5------------|

                 F
Supposing we got older
             C
Supposing we begin
                 Dm
Supposing I stop running
               A7
It could begin again
                  F
Supposing that we made it
                  C
I’m never looking back
                  Dm
I’m never looking back


VERSE2:
-- This same arpeggio feel from the chorus continues in this verse.
The arpeggios are not always full, sometimes only the first four or
five notes are played then suspended

   F                 C                 Dm                A7
e:------1---------|---------1-------|---------3-------|------5-------|
B:----1---1-------|-------3---3-----|-------4---4-----|----5---5-----|
G:--2-------2-----|-----3-------3---|-----5-------5---|--6-------6---|
D:------------3---|---3-----------3-|---5-----------5-|-----------7--|
A:--------------3-|-1---------------|-3---------------|------------7-|
E:-1--------------|-----------------|-----------------|-5------------|

    F
The hardest part of letting go
    C
Not easy to believe
    Dm
And sometimes you just never know
     A7
Gets harder to be seen
     Dm
Look on
         Dm
And look on


CHORUS:
                 F
Supposing we got older
             C
Supposing we begin
                 Dm
Supposing I stop running
               A7
It could begin again
                  F
Supposing that we made it
                  C
I’m never looking back
                  Dm
I’m never looking back, yea


BRIDGE:
-- There are two options for the bridge section. Either repeat the
pattern below to fade with the string section, or strum the chords
along with the lyrics

e:---------------------------------|---------------------------------|
B:---------------------------------|---------------------------------|
G:---------------------------------|---------------------------------|
D:-3---2---3---2---3---2---3---2---|-3---2----3---2---3---2---3---2--|
A:---3---3---3---3---3---3---3---3-|---3----3---3---3---3---3---3--3-|
E:---------------------------------|---------------------------------|

               Bb
I know you can see it now
    C
Can feel it now
        Dm
Through all
                      Bb
Seems it upwards this time
                     C
Think we made up our minds, oh
        Dm
What is left is just a scene


OUTRO: (2X)
-- There are two options for the outro section. Either repeat the
pattern below to fade with the string section, or strum the chords
along with the lyrics. Note this finger-picking pattern does not start
until halfway through

e:---------------------------------|---------------------------------|
B:---------------------------------|---------------------------------|
G:---------------------------------|---------------------------------|
D:-3---2---3---2---3---2---3---2---|-3---2----3---2---3---2---3---2--|
A:---3---3---3---3---3---3---3---3-|---3----3---3---3---3---3---3--3-|
E:---------------------------------|---------------------------------|

                 F
Supposing we got older
             C
Supposing we begin
                 Dm
Supposing I stop running
               A7
It could begin again
                  F
Supposing that we made it
                  C
I’m never looking back
                  Dm
I’m never looking back

              Bb
Here’s to the good times, the bad times
    C                     Dm
The times that could have been

======================================================================

---------------------------
This file passed through:
       Absolute Tabs
   http://www.tabs.co.za
---------------------------