Guitar tablature for Welkom By My Party by Nicholis Louw (tabbed by kunuk)
#----------------------------------PLEASE NOTE---------------------------------#
#This file is the author's own work and represents their interpretation of the #
#song. You may only use this file for private study, scholarship, or research. #
#------------------------------------------------------------------------------##

Welkom By My Party - Nicholis Louw
Album:  Hier Naby Jou



What makes this song really fun is the strumming pattern. Mix this
with the simple chord progression for the intro and verses, and it’s a
blast. Take time to listen to the song, and you should be able to pick
up the beat.

Here are the chords used in the song for quick reference:
       A       Bm      C#m     D       E      
e:-----0-------2---------------3-------0-------
B:-----2-------3-------5-------3-------0-------
G:-----2-------4-------6-------2-------1-------
D:-----2-------4-------6-------0-------2-------
A:-----0---------------4---------------2-------
E:-----0-------------------------------0-------

Have fun! Please let me know if there any changes/suggestions you have
to make the tab better,
Your Friendly Neighbourhood Kunuk – kunuk@rocketmail.com

======================================================================

INTRO:
A..... E..... A.....


A
Hey hey vandag begin die naweek
A
Bel die girls vanaand gaan ons party
E                                  A
Jy weet almal dink dis tyd vir ‘n jol

A
Hou vas ek gaan 'n plan maak
A
Bel elke siel wat nog saakmaak
E                                A
Hey jy bring ‘n paar wilde lywe saam

A
Lewe net een keer
C#m
Kuier sommer dwarsdeur
D                       E
Druk haar tot die son opkom


KOOR:
A
Hey jy welkom by my party
E
Maak geraas die bure raak nie kwaad nie
D                Bm
Ons gaan rock en ons gaan uithaak
E                      A
Niemand sal die nag vergeet

A
Hey jy welkom by my partie
E
Maak 'n plan dis lank nog nie te laat nie
D                Bm
Ons gaan rock en ons gaan uithaak
E                       A
Niemand sal die nag vergeet


A
Vat so strap los jou hare
A
Kom slaan die dromme en kitare
E                                  A
Hou vas haal asem en dan rock ons weer

A
Vat 5 dinge raak warm
A
Hou jou girl vas in jou arms
E                                   A
Hey hey hier is iets anders in die lug

A
Lewe net een keer
C#m
Kuier sommer dwarsdeur
D                        E
Druk haar tot die son opkom


KOOR:
A
Hey jy welkom by my party
E
Maak geraas die bure raak nie kwaad nie
D                Bm
Ons gaan rock en ons gaan uithaak
E                      A
Niemand sal die nag vergeet

E
Hey jy welkom by my partie
A
Maak 'n plan dis lank nog nie te laat nie
D                Bm
Ons gaan rock en ons gaan uithaak
E                      A
Niemand sal die nag vergeet


GUITAR SOLO:
e:-------------------------------------|----------------------------|
B:-5s10--10-9-10--10-9-10-12-10-9-10~~-|----------------------------|
G:-------------------------------------|-9--9-8-9--9-8-9-11-9-8-9~~-|
D:-------------------------------------|----------------------------|
A:-------------------------------------|----------------------------|
E:-------------------------------------|----------------------------|

e:---------------------------------|--------------------------------|
B:-3s7--7--7--7--------------------|-10-10-10--10-9-10-12-10-9-10~~-|
G:---------------7-9-7-6-7-7~~-----|--------------------------------|
D:---------------------------------|--------------------------------|
A:---------------------------------|--------------------------------|
E:---------------------------------|--------------------------------|


KOOR:

A
Hey jy welkom by my party
E
Maak geraas die bure raak nie kwaad nie
D                Bm
Ons gaan rock en ons gaan uithaak
E                       A
Niemand sal die nag vergeet

E
Hey jy welkom by my partie
A
Maak 'n plan dis lank nog nie te laat nie
D                Bm
Ons gaan rock en ons gaan uithaak
E                      A
Niemand sal die nag vergeet

======================================================================
Here is an English translation for all of those people out there like
myself, who dig the music, but are new to the language:
======================================================================

Hey, hey, the weekend starts today
Call the girls, tonight we’re gonna party
You know everyone thinks this time’s for fun

How was I going to make plans
Call every soul that you can think of
Hey, you bring a few wild spirits too

You only live once
Person just because other door
Squeeze her until the sun comes up

CHORUS:
Hey you are welcome at my party
Make noise not mischief
We will rock and we will be alright
Nobody will forget this night
Hey you are welcome at my party
Make a plan, it's not too late
We will rock and we will be alright
Nobody will forget this night

Let your hair down
Come beat the drum and strum the guitar
Take a deep breath, and then we’ll rock on

Take 5, things get hot
Hold your girl firmly in your arms
Hey, hey, here is something different in the air

You only live once
Person just because other door
Squeeze her until the sun comes up

CHORUS: (2X)
Hey you are welcome at my party
Make noise not mischief
We will rock and we will be alright
Nobody will forget this night
Hey you are welcome at my party
Make a plan, it's not too late
We will rock and we will be alright
Nobody will forget this night

======================================================================

---------------------------
This file passed through:
       Absolute Tabs
   http://www.tabs.co.za
---------------------------