Guitar tablature for Desvalido by Straatligkinders (tabbed by kunuk)
#----------------------------------PLEASE NOTE---------------------------------#
#This file is the author's own work and represents their interpretation of the #
#song. You may only use this file for private study, scholarship, or research. #
#------------------------------------------------------------------------------##

Desvalido - Straatligkinders en koldproduk
[The title is Spanish for Underdog]
Album: Sweef Soos 'n Vuishou



Walk This Way SA-Style! There is something special about a hip-hop &
rock collaboration...the beat always drives hard, there is a lot of
distortion, and your heart races.

There are a lot of different guitar licks and power-chord sections. I
have put separate instructions for each part of the song to try and
make it easier to navigate. The verses are in English, and the chorus
is in Afrikaans [translated into English below each line].

Here are the chords used in the song for quick reference:
       A#5     B5    B5    C#5     D5     E5     F5    F#5     G#5
e:-------------------------------------------------------------------
B:-------------------------------------------------------------------
G:------15-----16-------------------7------9-----10-----11-----13----
D:------15-----16-----9-----11------7------9-----10-----11-----13----
A:------13-----14-----9-----11------5------7------8------9-----11----
E:--------------------7------9---------------------------------------

Have fun! Please let me know if there any changes/suggestions you have
to make the tab better,
Your Friendly Neighbourhood Kunuk – kunuk@rocketmail.com

======================================================================

INTRO:
-Play these bars twice by themselves, then repeat with lyrics below.
Each bar represents one line of lyrics, so play the following 4-times
to complete entire intro section                      
       
  F#5        A#5        B5       A#5       F#5      
e:-----------------------------------------------------|
B:-----------------------------------------------------|
G:-11-11-11--15-15-15--16-16-16--15-15-15--11-11-11-11-|
D:-11-11-11--15-15-15--16-16-16--15-15-15--11-11-11-11-|
A:--9--9--9--13-13-13--14-14-14--13-13-13---9--9--9--9-|
E:-----------------------------------------------------|

  B5      F#5       B5   C#5    G#5    F#5   F5  (4X)    
e:--------------------------------------------------|
B:--------------------------------------------------|
G:--------11-11-11--------------13-13--11-11--10-10-|
D:-9-9-9--11-11-11--9-9--11-11--13-13--11-11--10-10-|
A:-9-9-9---9--9--9--9-9--11-11--11-11---9--9---8--8-|
E:-7-7-7------------7-7---9--9----------------------|

I wouldn't be offended if you never forgive me;
‘Cause if I had another chance I'd do it again.
I wouldn't be offended if you never forgive me;
‘Cause if I had another chance I'd do it again.


INTERLUDE:                (2X)
e:-------------------------|---------------------------|
B:-------------------------|---------------------------|
G:-----7-6-6-------7-9-9-9-|-----7-6-6---9-9-9-9-9-9-9-|
D:-7-7-------7-7-7---------|-7-7-------7---------------|
A:-------------------------|---------------------------|
E:-------------------------|---------------------------|


VERSE 1:
- Each bar represents one line of lyrics; repeat 4-times
for this verse                                         (4X)
e:---------------------------|----------------------------|
B:---------------------------|----------------------------|
G:---------7-6---------7-9-9-|---------7-6----------6-7-6-|
D:-7-7-7-7-----7-7-7-7-------|-7-7-7-7-----7-7-7-7--------|
A:---------------------------|----------------------------|
E:---------------------------|----------------------------|

I've got my mask and my weapons and I'm ready to set it;
My heavy music so loud that it tremors the ground.
And if you think we're going easy on y’all, forget it;
I'm rolling with my fellow hoodies from miles around.

And now we coming for blood, we trashing the place with large rocks;
It's better you run, whenever we chase we don't stop.
Building our army and we love it coz you can't do nothing;
Except joining and being a part of it! (Let’s go!)


KOOR [CHORUS]:
e:-------------------------|---------------------------|
B:-------------------------|---------------------------|
G:-----7-6-6-------7-9-9-9-|-----7-6-6---9-9-9-9-9-9-9-|
D:-7-7-------7-7-7---------|-7-7-------7---------------|
A:-------------------------|---------------------------|
E:-------------------------|---------------------------|
Gee my die kans om alles reg te maak            
[Give me the chance to make things right]

e:-------------------------|---------------------------|
B:-------------------------|---------------------------|
G:-----7-6-6-------7-9-9-9-|-----7-6-6---9-9-9-9-9-9-9-|
D:-7-7-------7-7-7---------|-7-7-------7---------------|
A:-------------------------|---------------------------|
E:-------------------------|---------------------------|
en leer my alles wat ek moet weet om te oorleef         
[and teach me everything I need to know to survive]

e:-------------------------|---------------------------|
B:-------------------------|---------------------------|
G:-----7-6-6-------7-9-9-9-|-----7-6-6---9-9-9-9-9-9-9-|
D:-7-7-------7-7-7---------|-7-7-------7---------------|
A:-------------------------|---------------------------|
E:-------------------------|---------------------------|
en om almal om my saam te neem,            
[and for me to take everyone along]

e:-------------------------|---------------------------|
B:-------------------------|---------------------------|
G:-----7-6-6-------7-9-9-9-|-----7-6-6---9-9-9-9-9-9-9-|
D:-7-7-------7-7-7---------|-7-7-------7---------------|
A:-------------------------|---------------------------|
E:-------------------------|---------------------------|
want ek wil 'n geveg begin.           
[because I want to start a fight.]


VERSE 2:
-Crank up the distortion, perhaps a chorus pedal to flavour
- Each bar represents one line of lyrics; repeat 4-times for
this verse                                                        (4X)
e:-----------------------------|-------------------------------------|
B:-----------------------------|-------------------------------------|
G:-----------------------------|-----6-6-6-6-6-6-6-6-----------------|
D:-4-4-4-4-4-4-4-4-4-4-4-4-----|-4-4-----------------7-7-7-7-7-7-7-7-|
A:-----------------------------|-------------------------------------|
E:-----------------------------|-------------------------------------|

You'd better keep a close watch coz we start trouble;
Anything we touch crumbles, We turning it into rubble.
Like a steam-rolling juggernaut, coming for your rabbit hole;
I'm warning you to duck down 'fore we touch ground.

We're rule-breakers, you'd better call the cops now;
And noise-making tryna make a rowdy rough sound.
We're fighting for our freedom so get out of our way;
But if you came to bring peace you'd better bring it today!


KOOR [CHORUS]:
e:-------------------------|---------------------------|
B:-------------------------|---------------------------|
G:-----7-6-6-------7-9-9-9-|-----7-6-6---9-9-9-9-9-9-9-|
D:-7-7-------7-7-7---------|-7-7-------7---------------|
A:-------------------------|---------------------------|
E:-------------------------|---------------------------|
Gee my die kans om alles reg te maak            
[Give me the chance to make things right]


e:-------------------------|---------------------------|
B:-------------------------|---------------------------|
G:-----7-6-6-------7-9-9-9-|-----7-6-6---9-9-9-9-9-9-9-|
D:-7-7-------7-7-7---------|-7-7-------7---------------|
A:-------------------------|---------------------------|
E:-------------------------|---------------------------|
en leer my alles wat ek moet weet om te oorleef         
[and teach me everything I need to know to survive]


e:-------------------------|---------------------------|
B:-------------------------|---------------------------|
G:-----7-6-6-------7-9-9-9-|-----7-6-6---9-9-9-9-9-9-9-|
D:-7-7-------7-7-7---------|-7-7-------7---------------|
A:-------------------------|---------------------------|
E:-------------------------|---------------------------|
en om almal om my saam te neem,            
[and for me to take everyone along]

e:-------------------------|---------------------------|
B:-------------------------|---------------------------|
G:-----7-6-6-------7-9-9-9-|-----7-6-6---9-9-9-9-9-9-9-|
D:-7-7-------7-7-7---------|-7-7-------7---------------|
A:-------------------------|---------------------------|
E:-------------------------|---------------------------|
want ek wil 'n geveg begin.           
[because I want to start a fight.]


INTERLUDE:
e:------------------------------------|
B:------------------------------------|
G:------------------------------------|
D:-4-4~~~~~~~~~~~~~~~~~~~~~~~~~~~~~~~-|
A:------------------------------------|
E:------------------------------------|
You better start running ‘cause we won't stop coming,
You better start running ‘cause we won't stop coming.


VERSE  3:
- Each bar represents one line of lyrics; repeat 2-times for this verse  

   F#5                     
e:-------------------------------------------------|
B:-------------------------------------------------|
G:-11-11-11-11-11-11-11-11-11-11-11-11-11-11-11-11-|
D:-11-11-11-11-11-11-11-11-11-11-11-11-11-11-11-11-|
A:--9--9--9--9--9--9--9--9--9--9--9--9--9--9--9--9-|
E:-------------------------------------------------|

   D5             E5            (2X)
e:---------------------------------|
B:---------------------------------|
G:-7-7-7-7-7-7-7-7-9-9-9-9-9-9-9-9-|
D:-7-7-7-7-7-7-7-7-9-9-9-9-9-9-9-9-|
A:-5-5-5-5-5-5-5-5-7-7-7-7-7-7-7-7-|
E:---------------------------------|

They tried to cut me off, and nail me on a cross;
Breaking my spirit, killing me ‘cause I wasn't giving up!
That's where I'm coming from, defeating every foe;
Open your eyes, witness the rise of the underdog!


INTERLUDE:
- Each bar represents one line of lyrics; repeat 2-times for
this interlude                                               (2X)
e:--------------------------------|-----------------------------|
B:--------------------------------|-----------------------------|
G:--------------------------------|-----------------------------|
D:--11--11--11--11--11--11--11----|--14--14--14--12--12--14--12-|
A:-----------------------------12-|-----------------------------|
E:--------------------------------|-----------------------------|
(Your soft type ain't never gonna make it!)
Open your eyes, witness the rise of the underdog!

(Just forget it I don't think he's gonna make it!)
Open your eyes, witness the rise of the underdog!


KOOR [CHORUS]:
e:-------------------------|---------------------------|
B:-------------------------|---------------------------|
G:-----7-6-6-------7-9-9-9-|-----7-6-6---9-9-9-9-9-9-9-|
D:-7-7-------7-7-7---------|-7-7-------7---------------|
A:-------------------------|---------------------------|
E:-------------------------|---------------------------|
Gee my die kans om alles reg te maak            
[Give me the chance to make things right]

e:-------------------------|---------------------------|
B:-------------------------|---------------------------|
G:-----7-6-6-------7-9-9-9-|-----7-6-6---9-9-9-9-9-9-9-|
D:-7-7-------7-7-7---------|-7-7-------7---------------|
A:-------------------------|---------------------------|
E:-------------------------|---------------------------|
en leer my alles wat ek moet weet om te oorleef         
[and teach me everything I need to know to survive]

e:-------------------------|---------------------------|
B:-------------------------|---------------------------|
G:-----7-6-6-------7-9-9-9-|-----7-6-6---9-9-9-9-9-9-9-|
D:-7-7-------7-7-7---------|-7-7-------7---------------|
A:-------------------------|---------------------------|
E:-------------------------|---------------------------|
en om almal om my saam te neem,            
[and for me to take everyone along]

e:-------------------------|---------------------------|------------||
B:-------------------------|---------------------------|------------||
G:-----7-6-6-------7-9-9-9-|-----7-6-6---9-9-9-9-9-9-9-|---------11-||
D:-7-7-------7-7-7---------|-7-7-------7---------------|---------11-||
A:-------------------------|---------------------------|----------9-||
E:-------------------------|---------------------------|------------||
want ek wil 'n geveg begin.           
[because I want to start a fight.]

======================================================================

---------------------------
This file passed through:
       Absolute Tabs
   http://www.tabs.co.za
---------------------------