Guitar tablature for 24 uur by Klopjag (tabbed by Wessie)
#----------------------------------PLEASE NOTE---------------------------------#
#This file is the author's own work and represents their interpretation of the #
#song. You may only use this file for private study, scholarship, or research. #
#------------------------------------------------------------------------------##

Klopjag - 24 uur
24/09/09 deur Renier Wessels

Standard tuning word gebruik. Die song is nogal maklik.
Al die chord charts en riffs is onder aan die song.
Enjoy...

Die song gaan so:

B5----F#5----E----F#5----B5----E-F#5

Vers: 1
-------
      B5
Op 'n springkasteel,
          F#5
bou ek 'n lugkasteel.
              E
Ek wonder hoe dit sal wees.
   F#5              B5   E F#5
Ek wonder hoe jy my lees.

        B5
Want ek dink alweer
            F#5
Ek dink aan elke keer.
               E
Ek moet jou vergeet, ek weet
   F#5                      B5      E F#5    
Ek sweer ek probeer maar ek kan nie.

Chorus:
-------

B5 F#5                 E
24 uur, was genoeg vir jou
   F#5              B5  E F#5
Om alles in twee te vou.
B5 F#5                  E
24 uur. En ek wonder by myself.
    F#5 (let ring)                       B5   E F#5
Hoe lank gaan hierdie girl in my kop nog delf.

Vers: 2
-------
        B5
Jy's 'n lucky strike.
                                 F#5
[Praat] Al is dit net vir iemand anders.
         E                          F#5 (Let ring)
Jy brand korter en korter, soos die lont van 'n bom
                                       B5    E F#5
En as jy ontplof byt die wêreld in jou stof.

      B5
Jy is elke boek,
               F#5
wat nog ooit geskryf was.
   E           
Jy weet mans is van Memel
   F#5                  B5   E F#5
en vrouens van Verkeerdevlei.

Chorus
------

[Praat die hele paragraaf terwyl jy die kitaar muted strum]
"Hallo, hoe gaan dit? Goed dankie met jou?
Nee ag wat ek's rustig, ek doen nie veel nie.
Mmmmm, dis baie nice, dis mooi.
So, hoe gaan dit met jou ma-hulle.
Nee nee dit gaan ook goed dankie
So, hoe gaan dit met jou ma-hulle.
Nee baie goed dankie hulle bekommer net vreeslik,
want ek skryf nou baie toetse
                   B5                   F#5
Wel ek, ek ken van toetse, ek druip jou altyd
       E                  F#5
Sonder herre, of siekes, beëdigde verklarings of
B5
slimpraatjies met proffies."

Chorus
------
                   E     F#5    B5  E F#5
...en ek wonder by myseeeeeeeeeeelf

Solo en:
B5----F#5----E----F#5----B5----E-F#5

    E                            F#5     B5     C-riff
hoe lank gaan hierdie girl in my kop nog delf...

------------------------------------------------------------------------------------------

Hierdie is die chords wat gebruik word:
[Strum gerus die volle chord. Dit klink reg. En in die begin van die song fokus hulle om
eerste die E snaar te pluk voor die chord gestrum word. Luister na die song en oefen dit
maar self]
       B5     F#5      E       
e:-----0-------0-------0-----
B:-----0-------0-------0-----
G:-----8-------3-------1-----
D:-----9-------4-------2-----
A:-----9-------4-------2-----
E:-----7-------2-------0-----

Hier is ook die een solo:

e:-7--6--7--9--9--|-7-6-7--6--7--9--9-|-7-6-7--6--7--9--s11--9--7-|-7-6-7--6--7--9--7--6 |
B:----------------|-------------------|---------------------------|----------------------|
G:----------------|-------------------|---------------------------|----------------------|
D:----------------|-------------------|---------------------------|----------------------|
A:----------------|-------------------|---------------------------|----------------------|
E:----------------|-------------------|---------------------------|----------------------|


Closing riff (C-riff):
----------------------
  B5               B5
e:-------0------|--0--|
B:-----0---0----|--0--|
G:---8-------8--|--8--|
D:-9------------|--9--|
A:--------------|--9--|
E:--------------|--7--|

---------------------------
This file passed through:
       Absolute Tabs
   http://www.tabs.co.za
---------------------------