Guitar tablature for Voorwarts Mars by Kurt Darren (tabbed by kunuk)
#----------------------------------PLEASE NOTE---------------------------------#
#This file is the author's own work and represents their interpretation of the #
#song. You may only use this file for private study, scholarship, or research. #
#------------------------------------------------------------------------------##

Voorwaarts Mars - Kurt Darren
Album:  Voorwarts Mars



This song is a lot of fun, and it repeats making it fairly easy to
play. I recommend using the “bar” chord options since the open chords
are a little unusual. If you get stuck on the verses, just play F#-bar
since they share many of the same notes, it fits seamlessly.

Here are the chords used in the song for quick reference:
     A-bar     A     B-bar     B     C#-bar    C#   F#-bar    F#             
e:-----5-------0-------7---------------9-------1-------2-------3------
B:-----5-------2-------7-------4-------9-------2-------2-------4------
G:-----6-------2-------8-------4-------10------1-------3-------3------
D:-----7-------2-------9-------4-------11------3-------4-------1------
A:-----7-------0-------9-------1-------11------4-------4--------------
E:-----5---------------7---------------9---------------2--------------

Have fun! Please let me know if there any changes/suggestions you have
to make the tab better,
Your Friendly Neighbourhood Kunuk – kunuk@rocketmail.com

======================================================================

INTRO:
e:-----------------|-----------------|
B:-2-----------2---|-2---------------|
G:---2-2---2-2-----|---2-2---2-4-2---|
D:-------4---------|-------4---------|
A:-----------------|-----------------|
E:-----------------|-----------------|

           F#
Voorwaarts mars my in jou lewe in
           B
Voorwaarts mars laat ons ‘n ding begin
            F#
Ek voel die ritme gee jou hart vir my
           C#                   A
Voorwaarts mars ek het jou pas gekry


VERS:  (Played together with the lyrics below)
e:----------------|----------------|----------------|----------------|
B:-2-----------2--|-2--------------|-2-----------2--|-2--------------|
G:---2-2---2-2----|---2-2---2-4-2--|---2-2---2-2----|---2-2---2-4-2--|
D:-------4--------|-------4--------|-------4--------|-------4--------|
A:----------------|----------------|----------------|----------------|
E:----------------|----------------|----------------|----------------|

Ek soek jou beste gee vir my
Jy gaan my nie onderkry
Wys vir my net wat jy het
Om so te lyk is teen die wet

Kom staan op aandag staan opsig
Jy wil mos staan en loer vir my
Ek sien jy lei my om die bos
Dit gaan jou nog baie kos


KOOR:
           F#
Voorwaarts mars my in jou lewe in
           B
Voorwaarts mars laat ons ‘n ding begin
            F#
Ek voel die ritme gee jou hart vir my
           C#               A
Voorwaarts mars ek het jou pas gekry


              F#   
So voorwaarts mars voorwaarts mars
B               
Laat ons ‘n ding begin
            F#
Ek voel die ritme gee jou hart vir my
           C#                A
Voorwaarts mars ek het jou pas gekry


VERS:  (Played together with the lyrics below)
e:----------------|----------------|----------------|----------------|
B:-2-----------2--|-2--------------|-2-----------2--|-2--------------|
G:---2-2---2-2----|---2-2---2-4-2--|---2-2---2-2----|---2-2---2-4-2--|
D:-------4--------|-------4--------|-------4--------|-------4--------|
A:----------------|----------------|----------------|----------------|
E:----------------|----------------|----------------|----------------|

Ek het iets van jou gehoor
Jy het mos jou hart verloor
Is dit ek of is dit jy
Wie is om die bos gelei

Jy het my ‘n les geleer
Ek gee nou oor jy’s in beheer
Staan nou op dis nie ‘n drill
Jy kan doen net wat jy wil


KOOR:
           F#
Voorwaarts mars my in jou lewe in
           B
Voorwaarts mars laat ons ‘n ding begin
            F#
Ek voel die ritme gee jou hart vir my
           C#               A
Voorwaarts mars ek het jou pas gekry


              F#   
So voorwaarts mars voorwaarts mars
B               
Laat ons ‘n ding begin
            F#
Ek voel die ritme gee jou hart vir my
           C#                A
Voorwaarts mars ek het jou pas gekry


======================================================================
Here is an English translation for all of those people out there like
myself, who dig the music, but are new to the language:
======================================================================

So forward march me in your life
Forward march let us a thing begin
I’m feeling the rhythm give your heart for me
Forward march I did your be appropriate get

VERSE:
I look for your best give for me
You’re going avoid not get under
Is showing for me just which you have
Appears to be is against the law

Come gets up attention stand respect
You’ll at least stand and spy for me
I do you see lead my at/to the bush
Its going to your still very costing

CHORUS:
So forward march me in your life
Forward march let us a thing begin
I’m feeling the rhythm give your heart for me
Forward march I did your be appropriate get

So forward march forward march
Let us a thing begin
I’m feeling the rhythm give your heart for me
Forward march I did your be appropriate get

VERSE:
I did something of your heard
You’ve got at least your heart lost
Is it I or is it you
Who are being fooled

You’ve got my a lesson being taught
I’m giving now over you’re in charge
Stand now it’s not a drill
You can do just which you will

CHORUS: (2X)
So forward march me in your life
Forward march let us a thing begin
I’m feeling the rhythm give your heart for me
Forward march I did your be appropriate get

So forward march forward march
Let us a thing begin
I’m feeling the rhythm give your heart for me
Forward march I did your be appropriate get

======================================================================

---------------------------
This file passed through:
       Absolute Tabs
   http://www.tabs.co.za
---------------------------