Guitar tablature for Inside by Downfall (tabbed by Nevay)
#----------------------------------PLEASE NOTE---------------------------------#
#This file is the author's own work and represents their interpretation of the #
#song. You may only use this file for private study, scholarship, or research. #
#------------------------------------------------------------------------------##

INTRO x2
gt2 x4 dist
4|-0-          --|
5|-0 (let ring) -|
6|-0-          --|

gt1 dist
1|--------------------|
2|----16-15-----16-15-|
3|--------------------|
4|-12--------13-------| x4

INTRO 2 x2
gt1 dist
6|-0-0-0-0-0-0-0-0-12-12-12-13-13-13-12-12-| x3
   . . . . . . . .

gt1+2 dist
4|-1---6-|
5|-1---6-|
6|-1---6-|

PRE VERSE gt1+2 dist
5|-------------0--0--0-|
6|-4p3p0-4p3p0-0--0--0-| x3
               .  .  .

4|-1---6-|
5|-1---6-|
6|-1---6-|

VERSE x2
gt2
4|-0-          --|
5|-0 (let ring) -|
6|-0-          --|

gt1 dist x2
1|--------------|
2|----16-15-----|
3|--------------|
4|-12--------13-|

gt1+2 dist
4|-1---6-|
5|-1---6-|
6|-1---6-|

CHORUS
gt1 dist
4|-0---9-10--7--6-|
5|-0---7-8---5--4-|
6|-0--------------| x3

4|-0---9-10--7--0m-|
5|-0---7-8---5--0m-|
6|-0------------0m-|
                .

gt2 dist
4|-0---7-8---5--4-|
5|-0---7-8---5--4-|
6|-0---7-8---5--4-| x3

4|-0---7-8---5--0m-|
5|-0---7-8---5--0m-|
6|-0---7-8---5--0m-|
                .

PRE-VERSE
gt1+2 dist
5|-------------0--0--0-|
6|-4p3p0-4p3p0-0--0--0-| x3
               .  .  .
4|-1---6-|
5|-1---6-|
6|-1---6-|

VERSE
CHORUS

BRIDGE
gt1 x3 dist
6|-0-0-0-0-0-0-0-0-12-12-12-13-13-13-12-12-| x3
   . . . . . . . .  .  .  .  .  .  .  .  .

gt1+gt2 dist
4|-----------------0-1--0-1-|
5|-----------------0-1--0-1-|
6|-0-0-0-0-0-0-0-0-0-1--0-1-|
   . . . . . . . . .    .

gt1 dist
6|-0-0-0-0-0-0-0-0-12-12-12-13-13-13-12-12-| x3
   . . . . . . . .

gt1+gt2 dist
4|-----------------0-1--0-1-|
5|-----------------0-1--0-1-|
6|-0-0-0-0-0-0-0-0-0-1--0-1-|
   . . . . . . . . .    .

VERSE
gt1+gt2 x2 dist
5|-------------0--0--0-|
6|-4p3p0-4p3p0-0--0--0-| x3
               .  .  .
4|-1---6-|
5|-1---6-|
6|-1---6-|

CHORUS

OUTRO
(drum measure x4)
gt1
3|-7---8---10--12-|
4|-x---x---x---x--|
5|-5---6---8---10-|

gt2 dist
5|-------------0-|
6|-4p3p0-4p3p0-0-| x7
               .
5|-----------------0m-|
6|-4p3p0-4p3p0-4h3-0m-|
                   .

---------------------------
This file passed through:
       Absolute Tabs
   http://www.tabs.co.za
---------------------------